  0
SECTION
  2
HEADER
  9
$ACADVER
  1
AC1015
  9
$ACADMAINTVER
 70
     6
  9
$DWGCODEPAGE
  3
ANSI_1254
  9
$INSBASE
 10
0.0
 20
0.0
 30
0.0
  9
$EXTMIN
 10
0.0
 20
0.0
 30
0.0
  9
$EXTMAX
 10
279.4
 20
215.9
 30
0.0
  9
$LIMMIN
 10
0.0
 20
0.0
  9
$LIMMAX
 10
279.4
 20
215.9
  9
$ORTHOMODE
 70
     0
  9
$REGENMODE
 70
     1
  9
$FILLMODE
 70
     1
  9
$QTEXTMODE
 70
     0
  9
$MIRRTEXT
 70
     1
  9
$LTSCALE
 40
1.0
  9
$ATTMODE
 70
     1
  9
$TEXTSIZE
 40
3.5
  9
$TRACEWID
 40
1.0
  9
$TEXTSTYLE
  7
Standard
  9
$CLAYER
  8
0
  9
$CELTYPE
  6
ByLayer
  9
$CECOLOR
 62
   256
  9
$CELTSCALE
 40
1.0
  9
$DISPSILH
 70
     0
  9
$DIMSCALE
 40
1.0
  9
$DIMASZ
 40
3.5
  9
$DIMEXO
 40
1.0
  9
$DIMDLI
 40
3.75
  9
$DIMRND
 40
0.0
  9
$DIMDLE
 40
0.0
  9
$DIMEXE
 40
1.0
  9
$DIMTP
 40
0.0
  9
$DIMTM
 40
0.0
  9
$DIMTXT
 40
3.5
  9
$DIMCEN
 40
2.5
  9
$DIMTSZ
 40
0.0
  9
$DIMTOL
 70
     0
  9
$DIMLIM
 70
     0
  9
$DIMTIH
 70
     1
  9
$DIMTOH
 70
     1
  9
$DIMSE1
 70
     0
  9
$DIMSE2
 70
     0
  9
$DIMTAD
 70
     1
  9
$DIMZIN
 70
     0
  9
$DIMBLK
  1

  9
$DIMASO
 70
     1
  9
$DIMSHO
 70
     1
  9
$DIMPOST
  1

  9
$DIMAPOST
  1

  9
$DIMALT
 70
     0
  9
$DIMALTD
 70
     3
  9
$DIMALTF
 40
0.0393700787
  9
$DIMLFAC
 40
1.0
  9
$DIMTOFL
 70
     1
  9
$DIMTVP
 40
0.0
  9
$DIMTIX
 70
     0
  9
$DIMSOXD
 70
     0
  9
$DIMSAH
 70
     0
  9
$DIMBLK1
  1

  9
$DIMBLK2
  1

  9
$DIMSTYLE
  2
ISO-25
  9
$DIMCLRD
 70
     0
  9
$DIMCLRE
 70
     0
  9
$DIMCLRT
 70
     0
  9
$DIMTFAC
 40
1.0
  9
$DIMGAP
 40
1.524
  9
$DIMJUST
 70
     0
  9
$DIMSD1
 70
     0
  9
$DIMSD2
 70
     0
  9
$DIMTOLJ
 70
     0
  9
$DIMTZIN
 70
     0
  9
$DIMALTZ
 70
     0
  9
$DIMALTTZ
 70
     0
  9
$DIMUPT
 70
     0
  9
$DIMDEC
 70
     2
  9
$DIMTDEC
 70
     2
  9
$DIMALTU
 70
     2
  9
$DIMALTTD
 70
     3
  9
$DIMTXSTY
  7
Standard
  9
$DIMAUNIT
 70
     0
  9
$DIMADEC
 70
     2
  9
$DIMALTRND
 40
0.0
  9
$DIMAZIN
 70
     0
  9
$DIMDSEP
 70
    44
  9
$DIMATFIT
 70
     3
  9
$DIMFRAC
 70
     0
  9
$DIMLDRBLK
  1

  9
$DIMLUNIT
 70
     2
  9
$DIMLWD
 70
    -2
  9
$DIMLWE
 70
    -2
  9
$DIMTMOVE
 70
     0
  9
$LUNITS
 70
     2
  9
$LUPREC
 70
     2
  9
$SKETCHINC
 40
1.0
  9
$FILLETRAD
 40
10.0
  9
$AUNITS
 70
     0
  9
$AUPREC
 70
     2
  9
$MENU
  1
.
  9
$ELEVATION
 40
0.0
  9
$PELEVATION
 40
0.0
  9
$THICKNESS
 40
0.0
  9
$LIMCHECK
 70
     0
  9
$CHAMFERA
 40
0.0
  9
$CHAMFERB
 40
0.0
  9
$CHAMFERC
 40
0.0
  9
$CHAMFERD
 40
0.0
  9
$SKPOLY
 70
     0
  9
$TDCREATE
 40
2459954.364293704
  9
$TDUCREATE
 40
2459954.239293704
  9
$TDUPDATE
 40
2459954.364294606
  9
$TDUUPDATE
 40
2459954.239294606
  9
$TDINDWG
 40
0.0000000116
  9
$TDUSRTIMER
 40
0.0000000116
  9
$USRTIMER
 70
     1
  9
$ANGBASE
 50
0.0
  9
$ANGDIR
 70
     0
  9
$PDMODE
 70
     0
  9
$PDSIZE
 40
-1.0
  9
$PLINEWID
 40
0.0
  9
$SPLFRAME
 70
     0
  9
$SPLINETYPE
 70
     6
  9
$SPLINESEGS
 70
     8
  9
$HANDSEED
  5
10E
  9
$SURFTAB1
 70
     6
  9
$SURFTAB2
 70
     6
  9
$SURFTYPE
 70
     6
  9
$SURFU
 70
     6
  9
$SURFV
 70
     6
  9
$UCSBASE
  2

  9
$UCSNAME
  2

  9
$UCSORG
 10
0.0
 20
0.0
 30
0.0
  9
$UCSXDIR
 10
1.0
 20
0.0
 30
0.0
  9
$UCSYDIR
 10
0.0
 20
1.0
 30
0.0
  9
$UCSORTHOREF
  2

  9
$UCSORTHOVIEW
 70
     0
  9
$UCSORGTOP
 10
0.0
 20
0.0
 30
0.0
  9
$UCSORGBOTTOM
 10
0.0
 20
0.0
 30
0.0
  9
$UCSORGLEFT
 10
0.0
 20
0.0
 30
0.0
  9
$UCSORGRIGHT
 10
0.0
 20
0.0
 30
0.0
  9
$UCSORGFRONT
 10
0.0
 20
0.0
 30
0.0
  9
$UCSORGBACK
 10
0.0
 20
0.0
 30
0.0
  9
$PUCSBASE
  2

  9
$PUCSNAME
  2

  9
$PUCSORG
 10
0.0
 20
0.0
 30
0.0
  9
$PUCSXDIR
 10
1.0
 20
0.0
 30
0.0
  9
$PUCSYDIR
 10
0.0
 20
1.0
 30
0.0
  9
$PUCSORTHOREF
  2

  9
$PUCSORTHOVIEW
 70
     0
  9
$PUCSORGTOP
 10
0.0
 20
0.0
 30
0.0
  9
$PUCSORGBOTTOM
 10
0.0
 20
0.0
 30
0.0
  9
$PUCSORGLEFT
 10
0.0
 20
0.0
 30
0.0
  9
$PUCSORGRIGHT
 10
0.0
 20
0.0
 30
0.0
  9
$PUCSORGFRONT
 10
0.0
 20
0.0
 30
0.0
  9
$PUCSORGBACK
 10
0.0
 20
0.0
 30
0.0
  9
$USERI1
 70
     0
  9
$USERI2
 70
     0
  9
$USERI3
 70
     0
  9
$USERI4
 70
     0
  9
$USERI5
 70
     0
  9
$USERR1
 40
0.0
  9
$USERR2
 40
0.0
  9
$USERR3
 40
0.0
  9
$USERR4
 40
0.0
  9
$USERR5
 40
0.0
  9
$WORLDVIEW
 70
     1
  9
$SHADEDGE
 70
     3
  9
$SHADEDIF
 70
    70
  9
$TILEMODE
 70
     1
  9
$MAXACTVP
 70
    64
  9
$PINSBASE
 10
0.0
 20
0.0
 30
0.0
  9
$PLIMCHECK
 70
     0
  9
$PEXTMIN
 10
1.0000000000E+20
 20
1.0000000000E+20
 30
1.0000000000E+20
  9
$PEXTMAX
 10
-1.0000000000E+20
 20
-1.0000000000E+20
 30
-1.0000000000E+20
  9
$PLIMMIN
 10
0.0
 20
0.0
  9
$PLIMMAX
 10
420.0
 20
297.0
  9
$UNITMODE
 70
     0
  9
$VISRETAIN
 70
     1
  9
$PLINEGEN
 70
     0
  9
$PSLTSCALE
 70
     1
  9
$TREEDEPTH
 70
  3020
  9
$CMLSTYLE
  2
Standard
  9
$CMLJUST
 70
     0
  9
$CMLSCALE
 40
20.0
  9
$PROXYGRAPHICS
 70
     1
  9
$MEASUREMENT
 70
     1
  9
$CELWEIGHT
370
    -1
  9
$ENDCAPS
280
     0
  9
$JOINSTYLE
280
     0
  9
$LWDISPLAY
290
     1
  9
$INSUNITS
 70
     4
  9
$HYPERLINKBASE
  1

  9
$STYLESHEET
  1

  9
$XEDIT
290
     1
  9
$CEPSNTYPE
380
     0
  9
$PSTYLEMODE
290
     1
  9
$FINGERPRINTGUID
  2
{edfcf58c-4ead-45c1-ad6c-d8e5cc03e85b}
  9
$VERSIONGUID
  2
{FAEB1C32-E019-11D5-929B-00C0DF256EC4}
  9
$EXTNAMES
290
     1
  9
$PSVPSCALE
 40
0.0
  9
$OLESTARTUP
290
     0
  0
ENDSEC
  0
SECTION
  2
CLASSES
  0
CLASS
  1
ACDBDICTIONARYWDFLT
  2
AcDbDictionaryWithDefault
  3
ObjectDBX Classes
 90
        0
280
     0
281
     0
  0
CLASS
  1
VISUALSTYLE
  2
AcDbVisualStyle
  3
ObjectDBX Classes
 90
     4095
280
     0
281
     0
  0
CLASS
  1
MATERIAL
  2
AcDbMaterial
  3
ObjectDBX Classes
 90
     1153
280
     0
281
     0
  0
CLASS
  1
SCALE
  2
AcDbScale
  3
ObjectDBX Classes
 90
     1153
280
     0
281
     0
  0
CLASS
  1
TABLESTYLE
  2
AcDbTableStyle
  3
ObjectDBX Classes
 90
     4095
280
     0
281
     0
  0
CLASS
  1
MLEADERSTYLE
  2
AcDbMLeaderStyle
  3
ACDB_MLEADERSTYLE_CLASS
 90
     4095
280
     0
281
     0
  0
CLASS
  1
SUN
  2
AcDbSun
  3
SCENEOE
 90
     1153
280
     0
281
     0
  0
CLASS
  1
ACDBPLACEHOLDER
  2
AcDbPlaceHolder
  3
ObjectDBX Classes
 90
        0
280
     0
281
     0
  0
CLASS
  1
LAYOUT
  2
AcDbLayout
  3
ObjectDBX Classes
 90
        0
280
     0
281
     0
  0
ENDSEC
  0
SECTION
  2
TABLES
  0
TABLE
  2
VPORT
  5
8
330
0
100
AcDbSymbolTable
 70
     1
  0
VPORT
  5
29
330
8
100
AcDbSymbolTableRecord
100
AcDbViewportTableRecord
  2
*Active
 70
     0
 10
0.0
 20
0.0
 11
1.0
 21
1.0
 12
139.7
 22
107.95
 13
0.0
 23
0.0
 14
10.0
 24
10.0
 15
10.0
 25
10.0
 16
0.0
 26
0.0
 36
1.0
 17
0.0
 27
0.0
 37
0.0
 40
215.9
 41
1.2941176471
 42
50.0
 43
0.0
 44
0.0
 50
0.0
 51
0.0
 71
     0
 72
  2000
 73
     1
 74
     3
 75
     0
 76
     0
 77
     0
 78
     0
281
     0
 65
     1
110
0.0
120
0.0
130
0.0
111
1.0
121
0.0
131
0.0
112
0.0
122
1.0
132
0.0
 79
     0
146
0.0
  0
ENDTAB
  0
TABLE
  2
LTYPE
  5
5
330
0
100
AcDbSymbolTable
 70
     6
  0
LTYPE
  5
14
330
5
100
AcDbSymbolTableRecord
100
AcDbLinetypeTableRecord
  2
ByBlock
 70
     0
  3

 72
    65
 73
     0
 40
0.0
  0
LTYPE
  5
15
330
5
100
AcDbSymbolTableRecord
100
AcDbLinetypeTableRecord
  2
ByLayer
 70
     0
  3

 72
    65
 73
     0
 40
0.0
  0
LTYPE
  5
16
330
5
100
AcDbSymbolTableRecord
100
AcDbLinetypeTableRecord
  2
Continuous
 70
     0
  3
Solid line
 72
    65
 73
     0
 40
0.0
  0
LTYPE
  5
6E
330
5
100
AcDbSymbolTableRecord
100
AcDbLinetypeTableRecord
  2
HIDDEN
 70
     0
  3
Hidden __ __ __ __ __ __ __ __ __ __ __ __ __ __
 72
    65
 73
     2
 40
1.905
 49
1.27
 74
     0
 49
-0.635
 74
     0
  0
LTYPE
  5
6F
330
5
100
AcDbSymbolTableRecord
100
AcDbLinetypeTableRecord
  2
PHANTOM
 70
     0
  3
Phantom ______  __  __  ______  __  __  ______
 72
    65
 73
     6
 40
12.7
 49
6.35
 74
     0
 49
-1.27
 74
     0
 49
1.27
 74
     0
 49
-1.27
 74
     0
 49
1.27
 74
     0
 49
-1.27
 74
     0
  0
LTYPE
  5
70
330
5
100
AcDbSymbolTableRecord
100
AcDbLinetypeTableRecord
  2
CENTER
 70
     0
  3
Center ____ _ ____ _ ____ _ ____ _ ____ _ ____
 72
    65
 73
     4
 40
10.16
 49
6.35
 74
     0
 49
-1.27
 74
     0
 49
1.27
 74
     0
 49
-1.27
 74
     0
  0
LTYPE
  5
71
330
5
100
AcDbSymbolTableRecord
100
AcDbLinetypeTableRecord
  2
CENTERX2
 70
     0
  3
Center (2x) ________  __  ________  __  _____
 72
    65
 73
     4
 40
20.32
 49
12.7
 74
     0
 49
-2.54
 74
     0
 49
2.54
 74
     0
 49
-2.54
 74
     0
  0
LTYPE
  5
72
330
5
100
AcDbSymbolTableRecord
100
AcDbLinetypeTableRecord
  2
DOT2
 70
     0
  3
Dot (.5x) ........................................
 72
    65
 73
     2
 40
0.635
 49
0.0
 74
     0
 49
-0.635
 74
     0
  0
ENDTAB
  0
TABLE
  2
LAYER
  5
2
330
0
100
AcDbSymbolTable
 70
    17
  0
LAYER
  5
10
330
2
100
AcDbSymbolTableRecord
100
AcDbLayerTableRecord
  2
0
 70
     0
 62
     7
  6
Continuous
370
    -3
390
F
  0
LAYER
  5
73
330
2
100
AcDbSymbolTableRecord
100
AcDbLayerTableRecord
  2
FORMAT
 70
     0
 62
     7
  6
Continuous
370
    -3
390
F
  0
LAYER
  5
74
330
2
100
AcDbSymbolTableRecord
100
AcDbLayerTableRecord
  2
YARDIMCI_GEOMETRI
 70
     0
 62
    -6
  6
Continuous
290
     0
370
    -3
390
F
  0
LAYER
  5
75
330
2
100
AcDbSymbolTableRecord
100
AcDbLayerTableRecord
  2
SAYFA_CERCEVESI
 70
     0
 62
     7
  6
Continuous
370
    25
390
F
  0
LAYER
  5
76
330
2
100
AcDbSymbolTableRecord
100
AcDbLayerTableRecord
  2
ANTET
 70
     0
 62
     7
  6
Continuous
370
    -3
390
F
  0
LAYER
  5
77
330
2
100
AcDbSymbolTableRecord
100
AcDbLayerTableRecord
  2
OLCU
 70
     0
 62
   150
  6
Continuous
370
    -3
390
F
  0
LAYER
  5
78
330
2
100
AcDbSymbolTableRecord
100
AcDbLayerTableRecord
  2
METIN
 70
     0
 62
    96
  6
Continuous
370
    -3
390
F
  0
LAYER
  5
79
330
2
100
AcDbSymbolTableRecord
100
AcDbLayerTableRecord
  2
BALON
 70
     0
 62
     5
  6
Continuous
370
    -3
390
F
  0
LAYER
  5
7A
330
2
100
AcDbSymbolTableRecord
100
AcDbLayerTableRecord
  2
VURGU
 70
     0
 62
     7
  6
Continuous
370
    -3
390
F
  0
LAYER
  5
7B
330
2
100
AcDbSymbolTableRecord
100
AcDbLayerTableRecord
  2
SILIK
 70
     0
 62
     7
  6
Continuous
370
    -3
390
F
  0
LAYER
  5
7C
330
2
100
AcDbSymbolTableRecord
100
AcDbLayerTableRecord
  2
MODEL
 70
     0
 62
     7
  6
Continuous
370
    -3
390
F
  0
LAYER
  5
7D
330
2
100
AcDbSymbolTableRecord
100
AcDbLayerTableRecord
  2
DETAYLANDıRMA
 70
     0
 62
   190
  6
Continuous
370
    -3
390
F
  0
LAYER
  5
7E
330
2
100
AcDbSymbolTableRecord
100
AcDbLayerTableRecord
  2
TOLERANS
 70
     0
 62
   230
  6
Continuous
370
    -3
390
F
  0
LAYER
  5
7F
330
2
100
AcDbSymbolTableRecord
100
AcDbLayerTableRecord
  2
MERKEZ_CIZGILERI
 70
     0
 62
    30
  6
Continuous
370
    -3
390
F
  0
LAYER
  5
80
330
2
100
AcDbSymbolTableRecord
100
AcDbLayerTableRecord
  2
KESIT-DETAY_CIZGILERI
 70
     0
 62
     7
  6
Continuous
370
    -3
390
F
  0
LAYER
  5
81
330
2
100
AcDbSymbolTableRecord
100
AcDbLayerTableRecord
  2
\U+041E\U+0421\U+0415\U+0412\U+042B\U+0415
 70
     0
 62
     7
  6
Continuous
370
    -3
390
F
  0
LAYER
  5
82
330
2
100
AcDbSymbolTableRecord
100
AcDbLayerTableRecord
  2
\U+0412\U+041E\U+0414\U+042F\U+041D\U+042B\U+0415_\U+0417\U+041D\U+0410\U+041A\U+0418
 70
     0
 62
    11
  6
Continuous
370
    -3
390
F
  0
ENDTAB
  0
TABLE
  2
STYLE
  5
3
330
0
100
AcDbSymbolTable
 70
     1
  0
STYLE
  5
11
330
3
100
AcDbSymbolTableRecord
100
AcDbTextStyleTableRecord
  2
Standard
 70
     0
 40
0.0
 41
1.0
 50
0.0
 71
     0
 42
3.5
  3
txt
  4

  0
ENDTAB
  0
TABLE
  2
VIEW
  5
6
330
0
100
AcDbSymbolTable
 70
     0
  0
ENDTAB
  0
TABLE
  2
UCS
  5
7
330
0
100
AcDbSymbolTable
 70
     0
  0
ENDTAB
  0
TABLE
  2
APPID
  5
9
330
0
100
AcDbSymbolTable
 70
     1
  0
APPID
  5
12
330
9
100
AcDbSymbolTableRecord
100
AcDbRegAppTableRecord
  2
ACAD
 70
     0
  0
ENDTAB
  0
TABLE
  2
DIMSTYLE
  5
A
330
0
100
AcDbSymbolTable
 70
     1
100
AcDbDimStyleTable
  0
DIMSTYLE
105
27
330
A
100
AcDbSymbolTableRecord
100
AcDbDimStyleTableRecord
  2
ISO-25
 70
     0
 41
2.5
 42
0.625
 43
3.75
 44
1.25
 73
     0
 74
     0
 77
     1
 78
     8
140
2.5
141
2.5
143
0.0393700787
147
0.625
171
     3
172
     1
178
     0
271
     2
272
     2
274
     3
278
    44
283
     0
284
     8
340
11
  0
ENDTAB
  0
TABLE
  2
BLOCK_RECORD
  5
1
330
0
100
AcDbSymbolTable
 70
     4
  0
BLOCK_RECORD
  5
1F
330
1
100
AcDbSymbolTableRecord
100
AcDbBlockTableRecord
  2
*Model_Space
340
22
  0
BLOCK_RECORD
  5
1B
330
1
100
AcDbSymbolTableRecord
100
AcDbBlockTableRecord
  2
*Paper_Space
340
1E
  0
BLOCK_RECORD
  5
23
330
1
100
AcDbSymbolTableRecord
100
AcDbBlockTableRecord
  2
*Paper_Space0
340
26
  0
BLOCK_RECORD
  5
8C
330
1
100
AcDbSymbolTableRecord
100
AcDbBlockTableRecord
  2
SW_CENTERMARKSYMBOL_0
340
0
102
{BLKREFS
331
97
102
}
  0
BLOCK_RECORD
  5
DE
330
1
100
AcDbSymbolTableRecord
100
AcDbBlockTableRecord
  2
SW_CENTERMARKSYMBOL_1
340
0
102
{BLKREFS
331
E9
102
}
  0
BLOCK_RECORD
  5
EA
330
1
100
AcDbSymbolTableRecord
100
AcDbBlockTableRecord
  2
SW_CENTERMARKSYMBOL_2
340
0
102
{BLKREFS
331
F5
102
}
  0
ENDTAB
  0
ENDSEC
  0
SECTION
  2
BLOCKS
  0
BLOCK
  5
20
330
1F
100
AcDbEntity
  8
0
100
AcDbBlockBegin
  2
*Model_Space
 70
     0
 10
0.0
 20
0.0
 30
0.0
  3
*Model_Space
  1

  0
ENDBLK
  5
21
330
1F
100
AcDbEntity
  8
0
100
AcDbBlockEnd
  0
BLOCK
  5
1C
330
1B
100
AcDbEntity
 67
     1
  8
0
100
AcDbBlockBegin
  2
*Paper_Space
 70
     0
 10
0.0
 20
0.0
 30
0.0
  3
*Paper_Space
  1

  0
ENDBLK
  5
1D
330
1B
100
AcDbEntity
 67
     1
  8
0
100
AcDbBlockEnd
  0
BLOCK
  5
24
330
23
100
AcDbEntity
  8
0
100
AcDbBlockBegin
  2
*Paper_Space0
 70
     0
 10
0.0
 20
0.0
 30
0.0
  3
*Paper_Space0
  1

  0
ENDBLK
  5
25
330
23
100
AcDbEntity
  8
0
100
AcDbBlockEnd
  0
BLOCK
  5
8D
330
8C
100
AcDbEntity
  8
0
100
AcDbBlockBegin
  2
SW_CENTERMARKSYMBOL_0
 70
     0
 10
0.0
 20
0.0
 30
0.0
  3
SW_CENTERMARKSYMBOL_0
  1

  0
LINE
  5
8F
330
8C
100
AcDbEntity
  8
FORMAT
 62
     0
100
AcDbLine
 10
0.0
 20
0.0
 30
0.0
 11
0.0
 21
2.5
 31
0.0
  0
LINE
  5
90
330
8C
100
AcDbEntity
  8
FORMAT
 62
     0
100
AcDbLine
 10
0.0
 20
0.0
 30
0.0
 11
-2.5
 21
0.0
 31
0.0
  0
LINE
  5
91
330
8C
100
AcDbEntity
  8
FORMAT
 62
     0
100
AcDbLine
 10
0.0
 20
0.0
 30
0.0
 11
0.0
 21
-2.5
 31
0.0
  0
LINE
  5
92
330
8C
100
AcDbEntity
  8
FORMAT
 62
     0
100
AcDbLine
 10
0.0
 20
0.0
 30
0.0
 11
2.5
 21
0.0
 31
0.0
  0
LINE
  5
93
330
8C
100
AcDbEntity
  8
FORMAT
 62
     0
100
AcDbLine
 10
0.0
 20
5.0
 30
0.0
 11
0.0
 21
18.65
 31
0.0
  0
LINE
  5
94
330
8C
100
AcDbEntity
  8
FORMAT
 62
     0
100
AcDbLine
 10
-5.0
 20
0.0
 30
0.0
 11
-18.65
 21
0.0
 31
0.0
  0
LINE
  5
95
330
8C
100
AcDbEntity
  8
FORMAT
 62
     0
100
AcDbLine
 10
0.0
 20
-5.0
 30
0.0
 11
0.0
 21
-18.65
 31
0.0
  0
LINE
  5
96
330
8C
100
AcDbEntity
  8
FORMAT
 62
     0
100
AcDbLine
 10
5.0
 20
0.0
 30
0.0
 11
18.65
 21
0.0
 31
0.0
  0
ENDBLK
  5
8E
330
8C
100
AcDbEntity
  8
0
100
AcDbBlockEnd
  0
BLOCK
  5
DF
330
DE
100
AcDbEntity
  8
0
100
AcDbBlockBegin
  2
SW_CENTERMARKSYMBOL_1
 70
     0
 10
0.0
 20
0.0
 30
0.0
  3
SW_CENTERMARKSYMBOL_1
  1

  0
LINE
  5
E1
330
DE
100
AcDbEntity
  8
FORMAT
 62
     0
100
AcDbLine
 10
0.0
 20
0.0
 30
0.0
 11
0.0
 21
2.5
 31
0.0
  0
LINE
  5
E2
330
DE
100
AcDbEntity
  8
FORMAT
 62
     0
100
AcDbLine
 10
0.0
 20
0.0
 30
0.0
 11
-2.5
 21
0.0
 31
0.0
  0
LINE
  5
E3
330
DE
100
AcDbEntity
  8
FORMAT
 62
     0
100
AcDbLine
 10
0.0
 20
0.0
 30
0.0
 11
0.0
 21
-2.5
 31
0.0
  0
LINE
  5
E4
330
DE
100
AcDbEntity
  8
FORMAT
 62
     0
100
AcDbLine
 10
0.0
 20
0.0
 30
0.0
 11
2.5
 21
0.0
 31
0.0
  0
LINE
  5
E5
330
DE
100
AcDbEntity
  8
FORMAT
 62
     0
100
AcDbLine
 10
0.0
 20
5.0
 30
0.0
 11
0.0
 21
9.5
 31
0.0
  0
LINE
  5
E6
330
DE
100
AcDbEntity
  8
FORMAT
 62
     0
100
AcDbLine
 10
-5.0
 20
0.0
 30
0.0
 11
-9.5
 21
0.0
 31
0.0
  0
LINE
  5
E7
330
DE
100
AcDbEntity
  8
FORMAT
 62
     0
100
AcDbLine
 10
0.0
 20
-5.0
 30
0.0
 11
0.0
 21
-9.5
 31
0.0
  0
LINE
  5
E8
330
DE
100
AcDbEntity
  8
FORMAT
 62
     0
100
AcDbLine
 10
5.0
 20
0.0
 30
0.0
 11
9.5
 21
0.0
 31
0.0
  0
ENDBLK
  5
E0
330
DE
100
AcDbEntity
  8
0
100
AcDbBlockEnd
  0
BLOCK
  5
EB
330
EA
100
AcDbEntity
  8
0
100
AcDbBlockBegin
  2
SW_CENTERMARKSYMBOL_2
 70
     0
 10
0.0
 20
0.0
 30
0.0
  3
SW_CENTERMARKSYMBOL_2
  1

  0
LINE
  5
ED
330
EA
100
AcDbEntity
  8
FORMAT
 62
     0
100
AcDbLine
 10
0.0
 20
0.0
 30
0.0
 11
0.0
 21
2.5
 31
0.0
  0
LINE
  5
EE
330
EA
100
AcDbEntity
  8
FORMAT
 62
     0
100
AcDbLine
 10
0.0
 20
0.0
 30
0.0
 11
-2.5
 21
0.0
 31
0.0
  0
LINE
  5
EF
330
EA
100
AcDbEntity
  8
FORMAT
 62
     0
100
AcDbLine
 10
0.0
 20
0.0
 30
0.0
 11
0.0
 21
-2.5
 31
0.0
  0
LINE
  5
F0
330
EA
100
AcDbEntity
  8
FORMAT
 62
     0
100
AcDbLine
 10
0.0
 20
0.0
 30
0.0
 11
2.5
 21
0.0
 31
0.0
  0
LINE
  5
F1
330
EA
100
AcDbEntity
  8
FORMAT
 62
     0
100
AcDbLine
 10
0.0
 20
5.0
 30
0.0
 11
0.0
 21
9.5
 31
0.0
  0
LINE
  5
F2
330
EA
100
AcDbEntity
  8
FORMAT
 62
     0
100
AcDbLine
 10
-5.0
 20
0.0
 30
0.0
 11
-9.5
 21
0.0
 31
0.0
  0
LINE
  5
F3
330
EA
100
AcDbEntity
  8
FORMAT
 62
     0
100
AcDbLine
 10
0.0
 20
-5.0
 30
0.0
 11
0.0
 21
-9.5
 31
0.0
  0
LINE
  5
F4
330
EA
100
AcDbEntity
  8
FORMAT
 62
     0
100
AcDbLine
 10
5.0
 20
0.0
 30
0.0
 11
9.5
 21
0.0
 31
0.0
  0
ENDBLK
  5
EC
330
EA
100
AcDbEntity
  8
0
100
AcDbBlockEnd
  0
ENDSEC
  0
SECTION
  2
ENTITIES
  0
LINE
  5
83
330
1F
100
AcDbEntity
  8
0
  6
Continuous
 62
     7
370
    25
100
AcDbLine
 10
137.6070913462
 20
116.533985032
 30
0.0
 11
137.6070913462
 21
134.8949519231
 31
0.0
  0
LINE
  5
84
330
1F
100
AcDbEntity
  8
0
  6
Continuous
 62
     7
370
    25
100
AcDbLine
 10
123.6070913462
 20
134.8949519231
 30
0.0
 11
123.6070913462
 21
116.5339475052
 31
0.0
  0
CIRCLE
  5
85
330
1F
100
AcDbEntity
  8
0
  6
Continuous
 62
     7
370
    25
100
AcDbCircle
 10
130.6070913462
 20
95.8949519231
 30
0.0
 40
21.14999999999999
  0
ARC
  5
86
330
1F
100
AcDbEntity
  8
0
  6
Continuous
 62
     7
370
    25
100
AcDbCircle
 10
130.6070913462
 20
95.8949519231
 30
0.0
 40
22.14999999999999
100
AcDbArc
 50
108.4228292925
 51
180.0
  0
ARC
  5
87
330
1F
100
AcDbEntity
  8
0
  6
Continuous
 62
     7
370
    25
100
AcDbCircle
 10
130.6070913462
 20
95.8949519231
 30
0.0
 40
22.15000000000001
100
AcDbArc
 50
180.0
 51
71.5771707075
  0
SPLINE
  5
88
330
1F
100
AcDbEntity
  8
0
  6
Continuous
 62
     7
370
    25
100
AcDbSpline
210
0.0
220
0.0
230
1.0
 70
     8
 71
     3
 72
    22
 73
    18
 74
     0
 42
0.00000001
 43
0.00000001
 40
0.0
 40
0.0
 40
0.0
 40
0.0
 40
0.0714291573164774
 40
0.1428522092826666
 40
0.214359679849591
 40
0.2858557263462533
 40
0.35571750581383
 40
0.4255815494663568
 40
0.4943217638278715
 40
0.5630724626233196
 40
0.6334291246309203
 40
0.7037878315483743
 40
0.7759877426584432
 40
0.8481729649012135
 40
0.9190576513493626
 40
0.9899342535312486
 40
1.0
 40
1.0
 40
1.0
 40
1.0
 10
135.5901680086068
 20
116.8781458893506
 30
0.0
 10
135.3010288151882
 20
116.9293702639185
 30
0.0
 10
134.7227751422931
 20
117.0318146346919
 30
0.0
 10
133.701570788698
 20
117.1735268190746
 30
0.0
 10
132.5974781682285
 20
117.28190009688
 30
0.0
 10
131.4402007178168
 20
117.3465148014958
 30
0.0
 10
130.2673925831857
 20
117.3565080037795
 30
0.0
 10
129.1194324623564
 20
117.316467866605
 30
0.0
 10
128.0213431821288
 20
117.2283975510476
 30
0.0
 10
126.9910109282074
 20
117.1055813407453
 30
0.0
 10
126.0539591198725
 20
116.9586687358743
 30
0.0
 10
125.2247816583971
 20
116.804672378725
 30
0.0
 10
124.5429825807377
 20
116.6649589196546
 30
0.0
 10
124.0234538857489
 20
116.557105651692
 30
0.0
 10
123.7162768544296
 20
116.5093351845916
 30
0.0
 10
123.5851892814068
 20
116.5019552799954
 30
0.0
 10
123.6149444881411
 20
116.5304090768464
 30
0.0
 10
123.6186447559503
 20
116.5339475052457
 30
0.0
  0
SPLINE
  5
89
330
1F
100
AcDbEntity
  8
0
  6
Continuous
 62
     7
370
    25
100
AcDbSpline
210
0.0
220
0.0
230
1.0
 70
     8
 71
     3
 72
    12
 73
     8
 74
     0
 42
0.00000001
 43
0.00000001
 40
0.0
 40
0.0
 40
0.0
 40
0.0
 40
0.1908464520665596
 40
0.3973961329943675
 40
0.6039808341402669
 40
0.801979172200569
 40
1.0
 40
1.0
 40
1.0
 40
1.0
 10
137.5962192028063
 20
116.5339850320391
 30
0.0
 10
137.5857671981705
 20
116.5225792534517
 30
0.0
 10
137.5640031769934
 20
116.4988292059378
 30
0.0
 10
137.2977204629474
 20
116.538718397116
 30
0.0
 10
136.8761649669998
 20
116.6214317931558
 30
0.0
 10
136.30974812167
 20
116.7406021686154
 30
0.0
 10
135.8300371271472
 20
116.8322962466846
 30
0.0
 10
135.5901680086068
 20
116.8781458893506
 30
0.0
  0
CIRCLE
  5
8A
330
1F
100
AcDbEntity
  8
0
  6
Continuous
 62
     7
370
    25
100
AcDbCircle
 10
130.6070913462
 20
95.8949519231
 30
0.0
 40
16.14999999999998
  0
LINE
  5
8B
330
1F
100
AcDbEntity
  8
0
  6
Continuous
 62
     7
370
    25
100
AcDbLine
 10
137.6070913462
 20
134.8949519231
 30
0.0
 11
123.6070913462
 21
134.8949519231
 31
0.0
  0
INSERT
  5
97
330
1F
100
AcDbEntity
  8
FORMAT
 62
     7
100
AcDbBlockReference
  2
SW_CENTERMARKSYMBOL_0
 10
130.6070913462
 20
95.8949519231
 30
0.0
  0
ARC
  5
98
330
1F
100
AcDbEntity
  8
0
  6
Continuous
 62
     7
370
    25
100
AcDbCircle
 10
207.5272577939
 20
-332.4550480769
 30
0.0
 40
450.4999999999982
100
AcDbArc
 50
93.1790014116
 51
93.818304866
  0
ARC
  5
99
330
1F
100
AcDbEntity
  8
0
  6
Continuous
 62
     7
370
    25
100
AcDbCircle
 10
207.5272577939
 20
-332.4550480769
 30
0.0
 40
450.4999999999982
100
AcDbArc
 50
90.0
 51
91.4008680749
  0
ARC
  5
9A
330
1F
100
AcDbEntity
  8
0
  6
Continuous
 62
     7
370
    25
100
AcDbCircle
 10
207.5272577939
 20
524.2449519231
 30
0.0
 40
450.4999999999982
100
AcDbArc
 50
266.181695134
 51
270.0
  0
LINE
  5
9B
330
1F
100
AcDbEntity
  8
0
  6
Continuous
 62
     7
370
    25
100
AcDbLine
 10
207.5272577939
 20
73.7449519231
 30
0.0
 11
232.5272577939
 21
73.7449519231
 31
0.0
  0
LINE
  5
9C
330
1F
100
AcDbEntity
  8
0
  6
Continuous
 62
     7
370
    25
100
AcDbLine
 10
232.5272577939
 20
118.0449519231
 30
0.0
 11
207.5272577939
 21
118.0449519231
 31
0.0
  0
ARC
  5
9D
330
1F
100
AcDbEntity
  8
0
  6
Continuous
 62
     7
370
    25
100
AcDbCircle
 10
232.5272577939
 20
-332.4550480769
 30
0.0
 40
450.4999999999982
100
AcDbArc
 50
88.5978017223
 51
90.0
  0
ARC
  5
9E
330
1F
100
AcDbEntity
  8
0
  6
Continuous
 62
     7
370
    25
100
AcDbCircle
 10
232.5272577939
 20
-332.4550480769
 30
0.0
 40
450.4999999999982
100
AcDbArc
 50
86.181695134
 51
86.8211572365
  0
ARC
  5
9F
330
1F
100
AcDbEntity
  8
0
  6
Continuous
 62
     7
370
    25
100
AcDbCircle
 10
232.5272577939
 20
524.2449519231
 30
0.0
 40
450.4999999999982
100
AcDbArc
 50
270.0
 51
273.818304866
  0
LINE
  5
A0
330
1F
100
AcDbEntity
  8
0
  6
Continuous
 62
     7
370
    25
100
AcDbLine
 10
196.5272577939
 20
117.9060675677
 30
0.0
 11
196.5272577939
 21
134.8949519231
 31
0.0
  0
LINE
  5
A1
330
1F
100
AcDbEntity
  8
0
  6
Continuous
 62
     7
370
    25
100
AcDbLine
 10
182.5272577939
 20
134.8949519231
 30
0.0
 11
182.5272577939
 21
117.346014598
 31
0.0
  0
LINE
  5
A2
330
1F
100
AcDbEntity
  8
0
  6
Continuous
 62
     7
370
    25
100
AcDbLine
 10
257.5272577939
 20
117.3456617361
 30
0.0
 11
257.5272577939
 21
134.8949519231
 31
0.0
  0
LINE
  5
A3
330
1F
100
AcDbEntity
  8
0
  6
Continuous
 62
     7
370
    25
100
AcDbLine
 10
243.5272577939
 20
134.8949519231
 30
0.0
 11
243.5272577939
 21
117.9024908409
 31
0.0
  0
LINE
  5
A4
330
1F
100
AcDbEntity
  8
0
  6
Continuous
 62
     7
370
    25
100
AcDbLine
 10
177.5272577939
 20
95.8949519231
 30
0.0
 11
177.5272577939
 21
117.0449519231
 31
0.0
  0
LINE
  5
A5
330
1F
100
AcDbEntity
  8
0
  6
Continuous
 62
     7
370
    25
100
AcDbLine
 10
177.5272577939
 20
74.7449519231
 30
0.0
 11
177.5272577939
 21
95.8949519231
 31
0.0
  0
SPLINE
  5
A6
330
1F
100
AcDbEntity
  8
0
  6
Continuous
 62
     7
370
    25
100
AcDbSpline
210
0.0
220
0.0
230
1.0
 70
     8
 71
     3
 72
    27
 73
    23
 74
     0
 42
0.00000001
 43
0.00000001
 40
0.0
 40
0.0
 40
0.0
 40
0.0
 40
0.0091683734398677
 40
0.0618068868441207
 40
0.1116916985157765
 40
0.1629452078904736
 40
0.2143600650524584
 40
0.2671357449578827
 40
0.3209413131425789
 40
0.3762928124258865
 40
0.4301712447543523
 40
0.4857623685961849
 40
0.53716129655277
 40
0.5901300980909169
 40
0.6403409903956054
 40
0.6919284144515473
 40
0.7436658898256601
 40
0.7968112753043124
 40
0.8501493886502879
 40
0.9050712560323538
 40
0.9576673587891454
 40
1.0
 40
1.0
 40
1.0
 40
1.0
 10
196.513833420937
 20
117.9060534193915
 30
0.0
 10
196.5180646707331
 20
117.9074978825951
 30
0.0
 10
196.5465888554289
 20
117.9172354630243
 30
0.0
 10
196.4180337134841
 20
117.8731589803563
 30
0.0
 10
196.1239234138497
 20
117.7747600683491
 30
0.0
 10
195.6507774330037
 20
117.6232944702711
 30
0.0
 10
195.0170817234034
 20
117.4344381019663
 30
0.0
 10
194.2282480757607
 20
117.2219747232359
 30
0.0
 10
193.2898807702167
 20
117.003132860784
 30
0.0
 10
192.2336481312058
 20
116.80265416445
 30
0.0
 10
191.0812541279969
 20
116.6407611756855
 30
0.0
 10
189.9045047660785
 20
116.5386378382202
 30
0.0
 10
188.7212426616748
 20
116.5009426262145
 30
0.0
 10
187.5985109567106
 20
116.5254127956618
 30
0.0
 10
186.5289114500863
 20
116.6032473972198
 30
0.0
 10
185.5480836979191
 20
116.7204866482755
 30
0.0
 10
184.6564476396751
 20
116.8648517977226
 30
0.0
 10
183.8877455627723
 20
117.017645367834
 30
0.0
 10
183.2593918118877
 20
117.1616661752678
 30
0.0
 10
182.8170565218567
 20
117.273179150728
 30
0.0
 10
182.561217921238
 20
117.3415008621197
 30
0.0
 10
182.5498932524545
 20
117.3446135347862
 30
0.0
 10
182.5448431156845
 20
117.3460016038756
 30
0.0
  0
LINE
  5
A7
330
1F
100
AcDbEntity
  8
0
  6
Continuous
 62
     7
370
    25
100
AcDbLine
 10
262.5272577939
 20
95.8949519231
 30
0.0
 11
262.5272577939
 21
117.0449519231
 31
0.0
  0
LINE
  5
A8
330
1F
100
AcDbEntity
  8
0
  6
Continuous
 62
     7
370
    25
100
AcDbLine
 10
262.5272577939
 20
74.7449519231
 30
0.0
 11
262.5272577939
 21
95.8949519231
 31
0.0
  0
SPLINE
  5
A9
330
1F
100
AcDbEntity
  8
0
  6
Continuous
 62
     7
370
    25
100
AcDbSpline
210
0.0
220
0.0
230
1.0
 70
     8
 71
     3
 72
    27
 73
    23
 74
     0
 42
0.00000001
 43
0.00000001
 40
0.0
 40
0.0
 40
0.0
 40
0.0
 40
0.0145334824049802
 40
0.067726427613043
 40
0.1185995617505083
 40
0.170885234105985
 40
0.2229569520452444
 40
0.2764626844473178
 40
0.3298292299348282
 40
0.3847947238420535
 40
0.4371565327783435
 40
0.4911597230099849
 40
0.5415616932858488
 40
0.5934113760508127
 40
0.6442078700694877
 40
0.6963493905791565
 40
0.7495562492679323
 40
0.8042409840742887
 40
0.8584592962825582
 40
0.9143666882132923
 40
0.9665477775814091
 40
1.0
 40
1.0
 40
1.0
 40
1.0
 10
257.5084028843446
 20
117.3456540853518
 30
0.0
 10
257.5139101352874
 20
117.3471403797769
 30
0.0
 10
257.5395740761057
 20
117.3540665526644
 30
0.0
 10
257.3932376525531
 20
117.3144205922496
 30
0.0
 10
257.0694700622073
 20
117.2300304943088
 30
0.0
 10
256.5624250648235
 20
117.1064795787238
 30
0.0
 10
255.8891465615183
 20
116.9595451387071
 30
0.0
 10
255.0633641964705
 20
116.8062010284474
 30
0.0
 10
254.0931156719847
 20
116.6649319965582
 30
0.0
 10
253.0237362944862
 20
116.5592486432999
 30
0.0
 10
251.8759164810471
 20
116.5049165043908
 30
0.0
 10
250.7211763253024
 20
116.5125528716963
 30
0.0
 10
249.5682880566936
 20
116.5822837054301
 30
0.0
 10
248.4681362024514
 20
116.7055333919995
 30
0.0
 10
247.4151150973133
 20
116.8747929664469
 30
0.0
 10
246.4380659658542
 20
117.0753622925639
 30
0.0
 10
245.5491037933311
 20
117.2934870920661
 30
0.0
 10
244.7877088105787
 20
117.5066175815686
 30
0.0
 10
244.1748483635761
 20
117.6952258586613
 30
0.0
 10
243.7622162614026
 20
117.8305927639261
 30
0.0
 10
243.5445912536559
 20
117.9046840203165
 30
0.0
 10
243.5492712316727
 20
117.903104354484
 30
0.0
 10
243.5510994415395
 20
117.902487265974
 30
0.0
  0
LINE
  5
AA
330
1F
100
AcDbEntity
  8
0
  6
Continuous
 62
     7
370
    25
100
AcDbLine
 10
196.5272577939
 20
134.8949519231
 30
0.0
 11
182.5272577939
 21
134.8949519231
 31
0.0
  0
LINE
  5
AB
330
1F
100
AcDbEntity
  8
0
  6
Continuous
 62
     7
370
    25
100
AcDbLine
 10
257.5272577939
 20
134.8949519231
 30
0.0
 11
243.5272577939
 21
134.8949519231
 31
0.0
  0
LINE
  5
AC
330
1F
100
AcDbEntity
  8
0
  6
Continuous
 62
     1
370
    25
100
AcDbLine
 10
207.5272577939
 20
95.8949519231
 30
0.0
 11
207.5272577939
 21
118.0449519231
 31
0.0
  0
LINE
  5
AD
330
1F
100
AcDbEntity
  8
0
  6
Continuous
 62
     1
370
    25
100
AcDbLine
 10
207.5272577939
 20
73.7449519231
 30
0.0
 11
207.5272577939
 21
95.8949519231
 31
0.0
  0
LINE
  5
AE
330
1F
100
AcDbEntity
  8
0
  6
Continuous
 62
     1
370
    25
100
AcDbLine
 10
232.5272577939
 20
95.8949519231
 30
0.0
 11
232.5272577939
 21
118.0449519231
 31
0.0
  0
LINE
  5
AF
330
1F
100
AcDbEntity
  8
0
  6
Continuous
 62
     1
370
    25
100
AcDbLine
 10
232.5272577939
 20
73.7449519231
 30
0.0
 11
232.5272577939
 21
95.8949519231
 31
0.0
  0
ARC
  5
B0
330
1F
100
AcDbEntity
  8
0
  6
Continuous
 62
     7
370
    25
100
AcDbCircle
 10
558.9570913462
 20
183.7377414897
 30
0.0
 40
450.4999999999982
100
AcDbArc
 50
180.0
 51
183.818304866
  0
ARC
  5
B1
330
1F
100
AcDbEntity
  8
0
  6
Continuous
 62
     7
370
    25
100
AcDbCircle
 10
-297.7429086538
 20
183.7377414897
 30
0.0
 40
450.4999999999982
100
AcDbArc
 50
356.181695134
 51
0.0
  0
LINE
  5
B2
330
1F
100
AcDbEntity
  8
0
  6
Continuous
 62
     7
370
    25
100
AcDbLine
 10
152.7570913462
 20
183.7377414897
 30
0.0
 11
152.7570913462
 21
208.7377414897
 31
0.0
  0
LINE
  5
B3
330
1F
100
AcDbEntity
  8
0
  6
Continuous
 62
     7
370
    25
100
AcDbLine
 10
108.4570913462
 20
208.7377414897
 30
0.0
 11
108.4570913462
 21
183.7377414897
 31
0.0
  0
ARC
  5
B4
330
1F
100
AcDbEntity
  8
0
  6
Continuous
 62
     7
370
    25
100
AcDbCircle
 10
558.9570913462
 20
208.7377414897
 30
0.0
 40
450.4999999999982
100
AcDbArc
 50
176.181695134
 51
180.0
  0
ARC
  5
B5
330
1F
100
AcDbEntity
  8
0
  6
Continuous
 62
     7
370
    25
100
AcDbCircle
 10
-297.7429086538
 20
208.7377414897
 30
0.0
 40
450.4999999999982
100
AcDbArc
 50
0.0
 51
3.818304866
  0
LINE
  5
B6
330
1F
100
AcDbEntity
  8
0
  6
Continuous
 62
     7
370
    25
100
AcDbLine
 10
151.7570913462
 20
153.7377414897
 30
0.0
 11
109.4570913462
 21
153.7377414897
 31
0.0
  0
LINE
  5
B7
330
1F
100
AcDbEntity
  8
0
  6
Continuous
 62
     7
370
    25
100
AcDbLine
 10
151.7570913462
 20
238.7377414897
 30
0.0
 11
109.4570913462
 21
238.7377414897
 31
0.0
  0
LINE
  5
B8
330
1F
100
AcDbEntity
  8
0
  6
Continuous
 62
     1
370
    25
100
AcDbLine
 10
152.7570913462
 20
183.7377414897
 30
0.0
 11
108.4570913462
 21
183.7377414897
 31
0.0
  0
LINE
  5
B9
330
1F
100
AcDbEntity
  8
0
  6
Continuous
 62
     1
370
    25
100
AcDbLine
 10
152.7570913462
 20
208.7377414897
 30
0.0
 11
108.4570913462
 21
208.7377414897
 31
0.0
  0
ARC
  5
BA
330
1F
100
AcDbEntity
  8
0
  6
Continuous
 62
     7
370
    25
100
AcDbCircle
 10
42.0433470665
 20
524.2449519231
 30
0.0
 40
450.4999999999982
100
AcDbArc
 50
270.0
 51
273.818304866
  0
ARC
  5
BB
330
1F
100
AcDbEntity
  8
0
  6
Continuous
 62
     7
370
    25
100
AcDbCircle
 10
42.0433470665
 20
-332.4550480769
 30
0.0
 40
450.4999999999982
100
AcDbArc
 50
88.599132568
 51
90.0
  0
ARC
  5
BC
330
1F
100
AcDbEntity
  8
0
  6
Continuous
 62
     7
370
    25
100
AcDbCircle
 10
42.0433470665
 20
-332.4550480769
 30
0.0
 40
450.4999999999982
100
AcDbArc
 50
86.181695134
 51
86.8209990928
  0
LINE
  5
BD
330
1F
100
AcDbEntity
  8
0
  6
Continuous
 62
     7
370
    25
100
AcDbLine
 10
42.0433470665
 20
118.0449519231
 30
0.0
 11
17.0433470665
 21
118.0449519231
 31
0.0
  0
LINE
  5
BE
330
1F
100
AcDbEntity
  8
0
  6
Continuous
 62
     7
370
    25
100
AcDbLine
 10
17.0433470665
 20
73.7449519231
 30
0.0
 11
42.0433470665
 21
73.7449519231
 31
0.0
  0
ARC
  5
BF
330
1F
100
AcDbEntity
  8
0
  6
Continuous
 62
     7
370
    25
100
AcDbCircle
 10
17.0433470665
 20
524.2449519231
 30
0.0
 40
450.4999999999982
100
AcDbArc
 50
266.181695134
 51
270.0
  0
ARC
  5
C0
330
1F
100
AcDbEntity
  8
0
  6
Continuous
 62
     7
370
    25
100
AcDbCircle
 10
17.0433470665
 20
-332.4550480769
 30
0.0
 40
450.4999999999982
100
AcDbArc
 50
93.1788432385
 51
93.818304866
  0
ARC
  5
C1
330
1F
100
AcDbEntity
  8
0
  6
Continuous
 62
     7
370
    25
100
AcDbCircle
 10
17.0433470665
 20
-332.4550480769
 30
0.0
 40
450.4999999999982
100
AcDbArc
 50
90.0
 51
91.4021989113
  0
LINE
  5
C2
330
1F
100
AcDbEntity
  8
0
  6
Continuous
 62
     7
370
    25
100
AcDbLine
 10
67.0433470665
 20
117.346014598
 30
0.0
 11
67.0433470665
 21
134.8949519231
 31
0.0
  0
LINE
  5
C3
330
1F
100
AcDbEntity
  8
0
  6
Continuous
 62
     7
370
    25
100
AcDbLine
 10
53.0433470665
 20
134.8949519231
 30
0.0
 11
53.0433470665
 21
117.9060675677
 31
0.0
  0
LINE
  5
C4
330
1F
100
AcDbEntity
  8
0
  6
Continuous
 62
     7
370
    25
100
AcDbLine
 10
6.0433470665
 20
117.9024908409
 30
0.0
 11
6.0433470665
 21
134.8949519231
 31
0.0
  0
LINE
  5
C5
330
1F
100
AcDbEntity
  8
0
  6
Continuous
 62
     7
370
    25
100
AcDbLine
 10
-7.9566529335
 20
134.8949519231
 30
0.0
 11
-7.9566529335
 21
117.3456617361
 31
0.0
  0
LINE
  5
C6
330
1F
100
AcDbEntity
  8
0
  6
Continuous
 62
     7
370
    25
100
AcDbLine
 10
72.0433470665
 20
117.0449519231
 30
0.0
 11
72.0433470665
 21
74.7449519231
 31
0.0
  0
SPLINE
  5
C7
330
1F
100
AcDbEntity
  8
0
  6
Continuous
 62
     7
370
    25
100
AcDbSpline
210
0.0
220
0.0
230
1.0
 70
     8
 71
     3
 72
    12
 73
     8
 74
     0
 42
0.00000001
 43
0.00000001
 40
0.0
 40
0.0
 40
0.0
 40
0.0
 40
0.2061398076475343
 40
0.4180605861554507
 40
0.6242628599982786
 40
0.8368768794795918
 40
1.0
 40
1.0
 40
1.0
 40
1.0
 10
55.19669762804529
 20
117.2641135520641
 30
0.0
 10
54.93217792101874
 20
117.3348028012964
 30
0.0
 10
54.39572033414512
 20
117.4781637042982
 30
0.0
 10
53.78257661948838
 20
117.6666354988416
 30
0.0
 10
53.33389582786486
 20
117.8118172203077
 30
0.0
 10
53.07856567914524
 20
117.8985610267967
 30
0.0
 10
53.06336832519372
 20
117.9037855497507
 30
0.0
 10
53.05677052173939
 20
117.9060537324687
 30
0.0
  0
SPLINE
  5
C8
330
1F
100
AcDbEntity
  8
0
  6
Continuous
 62
     7
370
    25
100
AcDbSpline
210
0.0
220
0.0
230
1.0
 70
     8
 71
     3
 72
    22
 73
    18
 74
     0
 42
0.00000001
 43
0.00000001
 40
0.0
 40
0.0
 40
0.0
 40
0.0
 40
0.0159947527846132
 40
0.0846805208226691
 40
0.1553508847257934
 40
0.2243063751821952
 40
0.2951437035501552
 40
0.3662558658502348
 40
0.4393906067620811
 40
0.5110177235614441
 40
0.5848713054168498
 40
0.6539523809373072
 40
0.7251380139997093
 40
0.7926970493614137
 40
0.8621025007708057
 40
0.9301895488998577
 40
1.0
 40
1.0
 40
1.0
 40
1.0
 10
67.02576102189737
 20
117.346001409244
 30
0.0
 10
67.03121279722097
 20
117.347471020661
 30
0.0
 10
67.06007596128666
 20
117.3552515385522
 30
0.0
 10
66.92355401482435
 20
117.318264832148
 30
0.0
 10
66.6187134879704
 20
117.2384427650896
 30
0.0
 10
66.11946715260486
 20
117.1160824711112
 30
0.0
 10
65.46260101076456
 20
116.9712904884331
 30
0.0
 10
64.64278006264956
 20
116.8168678671534
 30
0.0
 10
63.68924429290347
 20
116.6750360089512
 30
0.0
 10
62.61592700633105
 20
116.5649428973938
 30
0.0
 10
61.48498663246433
 20
116.5070403153206
 30
0.0
 10
60.31545340966137
 20
116.5101343688359
 30
0.0
 10
59.17440100658708
 20
116.5745118937269
 30
0.0
 10
58.05948169615171
 20
116.6954333148172
 30
0.0
 10
57.01905343827782
 20
116.8591287957083
 30
0.0
 10
56.04043971280455
 20
117.0552942924124
 30
0.0
 10
55.48027856683854
 20
117.1939295909226
 30
0.0
 10
55.19669762804529
 20
117.2641135520641
 30
0.0
  0
LINE
  5
C9
330
1F
100
AcDbEntity
  8
0
  6
Continuous
 62
     7
370
    25
100
AcDbLine
 10
-12.9566529335
 20
117.0449519231
 30
0.0
 11
-12.9566529335
 21
74.7449519231
 31
0.0
  0
SPLINE
  5
CA
330
1F
100
AcDbEntity
  8
0
  6
Continuous
 62
     7
370
    25
100
AcDbSpline
210
0.0
220
0.0
230
1.0
 70
     8
 71
     3
 72
    12
 73
     8
 74
     0
 42
0.00000001
 43
0.00000001
 40
0.0
 40
0.0
 40
0.0
 40
0.0
 40
0.2100212282711388
 40
0.4260178935450873
 40
0.6360738679032462
 40
0.8524927591054994
 40
1.0
 40
1.0
 40
1.0
 40
1.0
 10
-5.872845258485786
 20
116.8781458893506
 30
0.0
 10
-6.134886409205832
 20
116.9286969162005
 30
0.0
 10
-6.6664241969373
 20
117.0312372267796
 30
0.0
 10
-7.266339555264279
 20
117.1723983442978
 30
0.0
 10
-7.697079658415432
 20
117.2809371436473
 30
0.0
 10
-7.931169771622396
 20
117.3438410731723
 30
0.0
 10
-7.935886591298135
 20
117.3451312539858
 30
0.0
 10
-7.937798421735132
 20
117.3456541925584
 30
0.0
  0
SPLINE
  5
CB
330
1F
100
AcDbEntity
  8
0
  6
Continuous
 62
     7
370
    25
100
AcDbSpline
210
0.0
220
0.0
230
1.0
 70
     8
 71
     3
 72
    22
 73
    18
 74
     0
 42
0.00000001
 43
0.00000001
 40
0.0
 40
0.0
 40
0.0
 40
0.0
 40
0.0272298518033292
 40
0.0940853849265865
 40
0.1628529459849005
 40
0.2303671006570228
 40
0.2996688246637176
 40
0.3704080305055305
 40
0.4430901018373852
 40
0.5156052920189634
 40
0.5903563353029595
 40
0.6604884457050975
 40
0.7328390244977574
 40
0.8000846594034964
 40
0.8692463819830902
 40
0.933843650081418
 40
1.0
 40
1.0
 40
1.0
 40
1.0
 10
6.019505271699175
 20
117.9024872157514
 30
0.0
 10
6.025757458688531
 20
117.9046232671517
 30
0.0
 10
6.047360199084466
 20
117.912003814783
 30
0.0
 10
5.89004454631074
 20
117.8582018141325
 30
0.0
 10
5.564630004268996
 20
117.7500214785393
 30
0.0
 10
5.057582939828134
 20
117.5896141654174
 30
0.0
 10
4.396406932903857
 20
117.3957618459012
 30
0.0
 10
3.576000712563216
 20
117.1799493982369
 30
0.0
 10
2.616501912741556
 20
116.963628943547
 30
0.0
 10
1.532389979301926
 20
116.7674030985971
 30
0.0
 10
0.3813480115384058
 20
116.6173042664389
 30
0.0
 10
-0.8126220423900938
 20
116.526020642532
 30
0.0
 10
-1.973069440483515
 20
116.500995888452
 30
0.0
 10
-3.099526297046146
 20
116.5368331118629
 30
0.0
 10
-4.125044504149908
 20
116.6209756170791
 30
0.0
 10
-5.071259586062398
 20
116.7398328384317
 30
0.0
 10
-5.60353445217893
 20
116.8316764968113
 30
0.0
 10
-5.872845258485786
 20
116.8781458893506
 30
0.0
  0
LINE
  5
CC
330
1F
100
AcDbEntity
  8
0
  6
Continuous
 62
     7
370
    25
100
AcDbLine
 10
67.0433470665
 20
134.8949519231
 30
0.0
 11
53.0433470665
 21
134.8949519231
 31
0.0
  0
LINE
  5
CD
330
1F
100
AcDbEntity
  8
0
  6
Continuous
 62
     7
370
    25
100
AcDbLine
 10
6.0433470665
 20
134.8949519231
 30
0.0
 11
-7.9566529335
 21
134.8949519231
 31
0.0
  0
LINE
  5
CE
330
1F
100
AcDbEntity
  8
0
  6
Continuous
 62
     1
370
    25
100
AcDbLine
 10
42.0433470665
 20
118.0449519231
 30
0.0
 11
42.0433470665
 21
73.7449519231
 31
0.0
  0
LINE
  5
CF
330
1F
100
AcDbEntity
  8
0
  6
Continuous
 62
     1
370
    25
100
AcDbLine
 10
17.0433470665
 20
118.0449519231
 30
0.0
 11
17.0433470665
 21
73.7449519231
 31
0.0
  0
ARC
  5
D0
330
1F
100
AcDbEntity
  8
0
  6
Continuous
 62
     7
370
    25
100
AcDbCircle
 10
-297.7429086538
 20
19.1275359156
 30
0.0
 40
450.4999999999982
100
AcDbArc
 50
0.0
 51
3.818304866
  0
ARC
  5
D1
330
1F
100
AcDbEntity
  8
0
  6
Continuous
 62
     7
370
    25
100
AcDbCircle
 10
558.9570913462
 20
19.1275359156
 30
0.0
 40
450.4999999999982
100
AcDbArc
 50
176.181695134
 51
180.0
  0
LINE
  5
D2
330
1F
100
AcDbEntity
  8
0
  6
Continuous
 62
     7
370
    25
100
AcDbLine
 10
108.4570913462
 20
19.1275359156
 30
0.0
 11
108.4570913462
 21
-5.8724640844
 31
0.0
  0
LINE
  5
D3
330
1F
100
AcDbEntity
  8
0
  6
Continuous
 62
     7
370
    25
100
AcDbLine
 10
152.7570913462
 20
-5.8724640844
 30
0.0
 11
152.7570913462
 21
19.1275359156
 31
0.0
  0
ARC
  5
D4
330
1F
100
AcDbEntity
  8
0
  6
Continuous
 62
     7
370
    25
100
AcDbCircle
 10
-297.7429086538
 20
-5.8724640844
 30
0.0
 40
450.4999999999982
100
AcDbArc
 50
356.181695134
 51
0.0
  0
ARC
  5
D5
330
1F
100
AcDbEntity
  8
0
  6
Continuous
 62
     7
370
    25
100
AcDbCircle
 10
558.9570913462
 20
-5.8724640844
 30
0.0
 40
450.4999999999982
100
AcDbArc
 50
180.0
 51
183.818304866
  0
CIRCLE
  5
D6
330
1F
100
AcDbEntity
  8
0
  6
Continuous
 62
     7
370
    25
100
AcDbCircle
 10
130.6070913462
 20
37.1275359156
 30
0.0
 40
5.0
  0
CIRCLE
  5
D7
330
1F
100
AcDbEntity
  8
0
  6
Continuous
 62
     7
370
    25
100
AcDbCircle
 10
130.6070913462
 20
37.1275359156
 30
0.0
 40
7.000000000000011
  0
CIRCLE
  5
D8
330
1F
100
AcDbEntity
  8
0
  6
Continuous
 62
     7
370
    25
100
AcDbCircle
 10
130.6070913462
 20
-23.8724640844
 30
0.0
 40
7.000000000000021
  0
CIRCLE
  5
D9
330
1F
100
AcDbEntity
  8
0
  6
Continuous
 62
     7
370
    25
100
AcDbCircle
 10
130.6070913462
 20
-23.8724640844
 30
0.0
 40
5.000000000000011
  0
LINE
  5
DA
330
1F
100
AcDbEntity
  8
0
  6
Continuous
 62
     7
370
    25
100
AcDbLine
 10
109.4570913462
 20
49.1275359156
 30
0.0
 11
151.7570913462
 21
49.1275359156
 31
0.0
  0
LINE
  5
DB
330
1F
100
AcDbEntity
  8
0
  6
Continuous
 62
     7
370
    25
100
AcDbLine
 10
109.4570913462
 20
-35.8724640844
 30
0.0
 11
151.7570913462
 21
-35.8724640844
 31
0.0
  0
LINE
  5
DC
330
1F
100
AcDbEntity
  8
0
  6
Continuous
 62
     1
370
    25
100
AcDbLine
 10
108.4570913462
 20
19.1275359156
 30
0.0
 11
152.7570913462
 21
19.1275359156
 31
0.0
  0
LINE
  5
DD
330
1F
100
AcDbEntity
  8
0
  6
Continuous
 62
     1
370
    25
100
AcDbLine
 10
108.4570913462
 20
-5.8724640844
 30
0.0
 11
152.7570913462
 21
-5.8724640844
 31
0.0
  0
INSERT
  5
E9
330
1F
100
AcDbEntity
  8
FORMAT
 62
     7
100
AcDbBlockReference
  2
SW_CENTERMARKSYMBOL_1
 10
130.6070913462
 20
37.1275359156
 30
0.0
  0
INSERT
  5
F5
330
1F
100
AcDbEntity
  8
FORMAT
 62
     7
100
AcDbBlockReference
  2
SW_CENTERMARKSYMBOL_2
 10
130.6070913462
 20
-23.8724640844
 30
0.0
  0
SPLINE
  5
F6
330
1F
100
AcDbEntity
  8
0
  6
Continuous
 62
     7
370
    25
100
AcDbSpline
210
0.0
220
0.0
230
1.0
 70
     8
 71
     3
 72
    11
 73
     7
 74
     0
 42
0.00000001
 43
0.00000001
 40
0.0
 40
0.0
 40
0.0
 40
0.0
 40
0.2211619325102576
 40
0.5297784993437316
 40
0.8381814306453089
 40
1.0
 40
1.0
 40
1.0
 40
1.0
 10
188.4053493634726
 20
20.66161131846008
 30
0.0
 10
187.4656144006306
 20
20.07658530564343
 30
0.0
 10
185.2145426508746
 20
18.67519493240331
 30
0.0
 10
181.6998619631695
 20
16.38805022686434
 30
0.0
 10
178.4569077113844
 20
14.23037822129457
 30
0.0
 10
176.527295255447
 20
12.88996735563966
 30
0.0
 10
175.8632526147064
 20
12.42868821735049
 30
0.0
  0
SPLINE
  5
F7
330
1F
100
AcDbEntity
  8
0
  6
Continuous
 62
     7
370
    25
100
AcDbSpline
210
0.0
220
0.0
230
1.0
 70
     8
 71
     3
 72
    14
 73
    10
 74
     0
 42
0.00000001
 43
0.00000001
 40
0.0
 40
0.0
 40
0.0
 40
0.0
 40
0.0554727713789614
 40
0.2403454206031156
 40
0.4252479034562189
 40
0.6101604982880083
 40
0.7950638951438357
 40
0.9799391041602205
 40
1.0
 40
1.0
 40
1.0
 40
1.0
 10
196.9791937939945
 20
-24.15085286142
 30
0.0
 10
197.3989899300236
 20
-23.95458041169629
 30
0.0
 10
199.2178296305354
 20
-23.10419592018804
 30
0.0
 10
202.408647083582
 20
-21.53429760119331
 30
0.0
 10
206.5488807500236
 20
-19.44009044708924
 30
0.0
 10
210.6578943889572
 20
-17.27949580470958
 30
0.0
 10
214.7316598741271
 20
-15.0517007250821
 30
0.0
 10
217.5806403668736
 20
-13.4587027283882
 30
0.0
 10
219.0608548858593
 20
-12.59118157096871
 30
0.0
 10
219.205750922147
 20
-12.50626119254144
 30
0.0
  0
LINE
  5
F8
330
1F
100
AcDbEntity
  8
0
  6
Continuous
 62
     7
370
    25
100
AcDbLine
 10
202.4053493635
 20
16.7958949099
 30
0.0
 11
202.4053493635
 21
31.171163104
 31
0.0
  0
LINE
  5
F9
330
1F
100
AcDbEntity
  8
0
  6
Continuous
 62
     7
370
    25
100
AcDbLine
 10
188.4053493635
 20
31.171163104
 30
0.0
 11
188.4053493635
 21
16.4651683893
 31
0.0
  0
LINE
  5
FA
330
1F
100
AcDbEntity
  8
0
  6
Continuous
 62
     7
370
    25
100
AcDbLine
 10
214.7368409905
 20
36.0618281464
 30
0.0
 11
202.4053493635
 21
28.9430095584
 31
0.0
  0
LINE
  5
FB
330
1F
100
AcDbEntity
  8
0
  6
Continuous
 62
     7
370
    25
100
AcDbLine
 10
219.2073713888
 20
-12.5092378549
 30
0.0
 11
236.8850409184
 21
-2.3041364571
 31
0.0
  0
SPLINE
  5
FC
330
1F
100
AcDbEntity
  8
0
  6
Continuous
 62
     7
370
    25
100
AcDbSpline
210
0.0
220
0.0
230
1.0
 70
     8
 71
     3
 72
    12
 73
     8
 74
     0
 42
0.00000001
 43
0.00000001
 40
0.0
 40
0.0
 40
0.0
 40
0.0
 40
0.2433780243892208
 40
0.4868024778290886
 40
0.730214822779659
 40
0.9735900604178606
 40
1.0
 40
1.0
 40
1.0
 40
1.0
 10
231.5388630158521
 20
45.07897214139204
 30
0.0
 10
230.1573864333024
 20
44.38424527467888
 30
0.0
 10
227.3941697249091
 20
42.99465900870789
 30
0.0
 10
223.286580374752
 20
40.83152767181636
 30
0.0
 10
219.2124785683955
 20
38.60444836684125
 30
0.0
 10
216.3635669837526
 20
37.01128616354431
 30
0.0
 10
214.883344686564
 20
36.14376402378677
 30
0.0
 10
214.7384420575921
 20
36.05884013162478
 30
0.0
  0
SPLINE
  5
FD
330
1F
100
AcDbEntity
  8
0
  6
Continuous
 62
     7
370
    25
100
AcDbSpline
210
0.0
220
0.0
230
1.0
 70
     8
 71
     3
 72
    13
 73
     9
 74
     0
 42
0.00000001
 43
0.00000001
 40
0.0
 40
0.0
 40
0.0
 40
0.0
 40
0.1647770228148348
 40
0.3495481132501441
 40
0.534228847145779
 40
0.7188005951332618
 40
0.9032445758915637
 40
0.9999999999999999
 40
0.9999999999999999
 40
0.9999999999999999
 40
0.9999999999999999
 10
236.8834204518107
 20
-2.301159794757621
 30
0.0
 10
238.07610844771
 20
-1.608047404336364
 30
0.0
 10
240.6062053722743
 20
-0.1377202664665338
 30
0.0
 10
244.4287750855965
 20
2.183304165611643
 30
0.0
 10
248.3591475308294
 20
4.642894856722365
 30
0.0
 10
252.2451775688456
 20
7.163279690486
 30
0.0
 10
255.4870546847862
 20
9.322256856307897
 30
0.0
 10
257.4165885273209
 20
10.66245174762039
 30
0.0
 10
258.0805048160288
 20
11.12358759233652
 30
0.0
  0
LINE
  5
FE
330
1F
100
AcDbEntity
  8
0
  6
Continuous
 62
     7
370
    25
100
AcDbLine
 10
245.5388630159
 20
41.3655598099
 30
0.0
 11
245.5388630159
 21
56.0716105146
 31
0.0
  0
LINE
  5
FF
330
1F
100
AcDbEntity
  8
0
  6
Continuous
 62
     7
370
    25
100
AcDbLine
 10
231.5388630159
 20
56.0716105146
 30
0.0
 11
231.5388630159
 21
41.6961976259
 31
0.0
  0
LWPOLYLINE
  5
100
330
1F
100
AcDbEntity
  8
0
  6
Continuous
 62
     7
370
    25
100
AcDbPolyline
 90
      104
 70
   128
 43
0.0
 10
171.9647595671
 20
3.061138552
 10
171.9925769319
 20
4.0979178707
 10
172.0759255439
 20
5.0987230563
 10
172.2144953407
 20
6.0598310481
 10
172.4077708337
 20
6.977666461
 10
172.6550330252
 20
7.8488148871
 10
172.9553620838
 20
8.6700355971
 10
173.3076407655
 20
9.4382735959
 10
173.7105585705
 20
10.1506709876
 10
174.1626166182
 20
10.8045776074
 10
174.6621332229
 20
11.3975608795
 10
175.2072501501
 20
11.9274148672
 10
175.7959395289
 20
12.3921684789
 10
176.4260113962
 20
12.7900928007
 10
177.0951218433
 20
13.1197075279
 10
177.8007817353
 20
13.3797864722
 10
178.5403659712
 20
13.5693621226
 10
179.311123249
 20
13.6877292455
 10
180.1101863009
 20
13.7344475072
 10
180.93458256
 20
13.7093431128
 10
181.7812452181
 20
13.6125094524
 10
182.6470246343
 20
13.4443067534
 10
183.5287000525
 20
13.2053607409
 10
184.4229915822
 20
12.8965603099
 10
185.3265724001
 20
12.5190542182
 10
186.2360811263
 20
12.0742468132
 10
187.1481343285
 20
11.5637928078
 10
188.0593391089
 20
10.9895911243
 10
188.966305726
 20
10.3537778308
 10
189.8656602043
 20
9.6587181944
 10
190.7540568861
 20
8.9069978826
 10
191.6281908773
 20
8.1014133444
 10
192.4848103422
 20
7.2449614072
 10
193.3207286001
 20
6.3408281284
 10
194.13283598
 20
5.3923769431
 10
194.9181113893
 20
4.4031361522
 10
195.6736335519
 20
3.3767857964
 10
196.3965918756
 20
2.3171439662
 10
197.0842969081
 20
1.2281525991
 10
197.7341903413
 20
0.1138628143
 10
198.3438545292
 20
-1.0215801569
 10
198.9110214808
 20
-2.1739523922
 10
199.4335812978
 20
-3.338966991
 10
199.9095900235
 20
-4.5122900227
 10
200.337276874
 20
-5.6895566483
 10
200.7150508263
 20
-6.8663873589
 10
201.0415065363
 20
-8.0384042667
 10
201.3154295674
 20
-9.2012473921
 10
201.535800908
 20
-10.350590882
 10
201.7018007621
 20
-11.4821591034
 10
201.8128115995
 20
-12.591742548
 10
201.8684204525
 20
-13.6752134927
 10
201.8684204525
 20
-14.7285413542
 10
201.8128115995
 20
-15.7478076838
 10
201.7018007621
 20
-16.7292207438
 10
201.535800908
 20
-17.6691296132
 10
201.3154295674
 20
-18.5640377691
 10
201.0415065363
 20
-19.4106160946
 10
200.7150508263
 20
-20.2057152626
 10
200.337276874
 20
-20.946377452
 10
199.9095900235
 20
-21.6298473508
 10
199.4335812978
 20
-22.2535824061
 10
198.9110214808
 20
-22.8152622825
 10
198.3438545292
 20
-23.312797494
 10
197.7341903413
 20
-23.744337177
 10
197.0842969081
 20
-24.1082759753
 10
196.3965918756
 20
-24.403260013
 10
195.6736335519
 20
-24.6281919298
 10
194.9181113893
 20
-24.7822349644
 10
194.13283598
 20
-24.8648160665
 10
193.3207286001
 20
-24.875628029
 10
192.4848103422
 20
-24.8146306307
 10
191.6281908773
 20
-24.6820507859
 10
190.7540568861
 20
-24.4783817004
 10
189.8656602043
 20
-24.2043810365
 10
188.966305726
 20
-23.8610680946
 10
188.0593391089
 20
-23.4497200216
 10
187.1481343285
 20
-22.9718670591
 10
186.2360811263
 20
-22.4292868518
 10
185.3265724001
 20
-21.8239978334
 10
184.4229915822
 20
-21.158251719
 10
183.5287000525
 20
-20.4345251278
 10
182.6470246343
 20
-19.6555103703
 10
181.7812452181
 20
-18.8241054325
 10
180.93458256
 20
-17.9434031955
 10
180.1101863009
 20
-17.0166799293
 10
179.311123249
 20
-16.0473831054
 10
178.5403659712
 20
-15.0391185717
 10
177.8007817353
 20
-13.9956371384
 10
177.0951218433
 20
-12.920820625
 10
176.4260113962
 20
-11.8186674195
 10
175.7959395289
 20
-10.6932776043
 10
175.2072501501
 20
-9.5488377033
 10
174.6621332229
 20
-8.3896051082
 10
174.1626166182
 20
-7.2198922403
 10
173.7105585705
 20
-6.0440505084
 10
173.3076407655
 20
-4.866454121
 10
172.9553620838
 20
-3.6914838138
 10
172.6550330252
 20
-2.5235105537
 10
172.4077708337
 20
-1.3668792779
 10
172.2144953407
 20
-0.2258927307
 10
172.0759255439
 20
0.895204543
 10
171.9925769319
 20
1.9922419877
 10
171.9647595671
 20
3.061138552
  0
SPLINE
  5
101
330
1F
100
AcDbEntity
  8
0
  6
Continuous
 62
     7
370
    25
100
AcDbSpline
210
0.0
220
0.0
230
1.0
 70
     8
 71
     3
 72
    17
 73
    13
 74
     0
 42
0.00000001
 43
0.00000001
 40
0.0
 40
0.0
 40
0.0
 40
0.0
 40
0.1069548120297569
 40
0.2139004821822051
 40
0.3209725569558565
 40
0.4280275258397927
 40
0.5326354166750852
 40
0.6372466977992294
 40
0.7401752074181578
 40
0.8431194159575651
 40
0.9484683216813653
 40
1.0
 40
1.0
 40
1.0
 40
1.0
 10
195.4526437320602
 20
12.41878392641213
 30
0.0
 10
195.0605092783294
 20
12.47029201176536
 30
0.0
 10
194.2762738882478
 20
12.57330377985929
 30
0.0
 10
193.1287229769996
 20
12.86026836512107
 30
0.0
 10
192.04329942275
 20
13.22355443198059
 30
0.0
 10
191.056077791054
 20
13.65119112694192
 30
0.0
 10
190.1993634245452
 20
14.12235662884143
 30
0.0
 10
189.4939043112943
 20
14.61929469906376
 30
0.0
 10
188.9531043434574
 20
15.13284438616614
 30
0.0
 10
188.5900762023261
 20
15.6597703787256
 30
0.0
 10
188.4108188008884
 20
16.1045353136178
 30
0.0
 10
188.4249589584161
 20
16.37598524469125
 30
0.0
 10
188.4296036762665
 20
16.46515032916028
 30
0.0
  0
SPLINE
  5
102
330
1F
100
AcDbEntity
  8
0
  6
Continuous
 62
     7
370
    25
100
AcDbSpline
210
0.0
220
0.0
230
1.0
 70
     8
 71
     3
 72
    17
 73
    13
 74
     0
 42
0.00000001
 43
0.00000001
 40
0.0
 40
0.0
 40
0.0
 40
0.0
 40
0.0553772804081579
 40
0.1631365998508237
 40
0.273799210891046
 40
0.3844316424134433
 40
0.491488690841602
 40
0.5985356281390346
 40
0.7010159770462933
 40
0.8035137013576324
 40
0.9017512714973273
 40
0.9999999999999999
 40
0.9999999999999999
 40
0.9999999999999999
 40
0.9999999999999999
 10
202.3807358552901
 20
16.79593463777081
 30
0.0
 10
202.3850192774748
 20
16.65037196395611
 30
0.0
 10
202.3976378626742
 20
16.22155712335177
 30
0.0
 10
202.2072271896441
 20
15.50667860639931
 30
0.0
 10
201.8156797967271
 20
14.69620143339103
 30
0.0
 10
201.2277924026614
 20
13.9665447518515
 30
0.0
 10
200.4739429718765
 20
13.35911103588496
 30
0.0
 10
199.5978958999351
 20
12.89209952960835
 30
0.0
 10
198.6197977412908
 20
12.57281882930057
 30
0.0
 10
197.5912149508836
 20
12.39462943417659
 30
0.0
 10
196.5262201546932
 20
12.33857115545293
 30
0.0
 10
195.8105160877685
 20
12.39204532383491
 30
0.0
 10
195.4526437320602
 20
12.41878392641213
 30
0.0
  0
LWPOLYLINE
  5
103
330
1F
100
AcDbEntity
  8
0
  6
Continuous
 62
     7
370
    25
100
AcDbPolyline
 90
       91
 70
   128
 43
0.0
 10
175.5002934731
 20
1.0201182725
 10
175.5281114698
 20
1.9239472592
 10
175.6114299336
 20
2.7912549066
 10
175.7498429453
 20
3.6178157789
 10
175.9426761706
 20
4.3996029546
 10
176.1889901454
 20
5.1328076453
 10
176.4875848527
 20
5.8138577513
 10
176.8370055692
 20
6.439435265
 10
177.2355499523
 20
7.0064924357
 10
177.6812763337
 20
7.5122666178
 10
178.1720131795
 20
7.9542937303
 10
178.7053696689
 20
8.3304202616
 10
179.2787473428
 20
8.638813761
 10
179.8893527627
 20
8.8779717664
 10
180.5342111206
 20
9.0467291241
 10
181.2101807312
 20
9.1442636651
 10
181.9139683385
 20
9.1701002109
 10
182.6421451602
 20
9.1241128886
 10
183.3911635918
 20
9.0065257437
 10
184.157374491
 20
8.817911649
 10
184.9370449551
 20
8.5591895134
 10
185.7263765082
 20
8.231619805
 10
186.5215236062
 20
7.8367984107
 10
187.3186123723
 20
7.3766488606
 10
188.1137594703
 20
6.853412957
 10
188.9030910233
 20
6.2696398526
 10
189.6827614875
 20
5.6281736314
 10
190.4489723867
 20
4.9321394522
 10
191.1979908183
 20
4.1849283237
 10
191.92616764
 20
3.3901805833
 10
192.6299552473
 20
2.5517681621
 10
193.3059248579
 20
1.6737757212
 10
193.9507832157
 20
0.7604807516
 10
194.5613886357
 20
-0.1836672656
 10
195.1347663096
 20
-1.1540685361
 10
195.668122799
 20
-2.1459953624
 10
196.1588596447
 20
-3.1546151767
 10
196.6045860262
 20
-4.1750140847
 10
197.0031304093
 20
-5.2022208055
 10
197.3525511258
 20
-6.2312308913
 10
197.6511458331
 20
-7.2570311082
 10
197.8974598079
 20
-8.2746238607
 10
198.0902930331
 20
-9.2790515393
 10
198.2287060448
 20
-10.2654206733
 10
198.3120245086
 20
-11.2289257713
 10
198.3398425054
 20
-12.1648727334
 10
198.3120245086
 20
-13.0687017202
 10
198.2287060448
 20
-13.9360093675
 10
198.0902930331
 20
-14.7625702398
 10
197.8974598079
 20
-15.5443574155
 10
197.6511458331
 20
-16.2775621062
 10
197.3525511258
 20
-16.9586122122
 10
197.0031304093
 20
-17.584189726
 10
196.6045860262
 20
-18.1512468966
 10
196.1588596447
 20
-18.6570210787
 10
195.668122799
 20
-19.0990481913
 10
195.1347663096
 20
-19.4751747226
 10
194.5613886357
 20
-19.783568222
 10
193.9507832157
 20
-20.0227262274
 10
193.3059248579
 20
-20.191483585
 10
192.6299552473
 20
-20.289018126
 10
191.92616764
 20
-20.3148546719
 10
191.1979908183
 20
-20.2688673496
 10
190.4489723867
 20
-20.1512802047
 10
189.6827614875
 20
-19.9626661099
 10
188.9030910233
 20
-19.7039439743
 10
188.1137594703
 20
-19.376374266
 10
187.3186123723
 20
-18.9815528717
 10
186.5215236062
 20
-18.5214033216
 10
185.7263765082
 20
-17.9981674179
 10
184.9370449551
 20
-17.4143943136
 10
184.157374491
 20
-16.7729280923
 10
183.3911635918
 20
-16.0768939132
 10
182.6421451602
 20
-15.3296827846
 10
181.9139683385
 20
-14.5349350442
 10
181.2101807312
 20
-13.6965226231
 10
180.5342111206
 20
-12.8185301822
 10
179.8893527627
 20
-11.9052352125
 10
179.2787473428
 20
-10.9610871953
 10
178.7053696689
 20
-9.9906859249
 10
178.1720131795
 20
-8.9987590986
 10
177.6812763337
 20
-7.9901392842
 10
177.2355499523
 20
-6.9697403762
 10
176.8370055692
 20
-5.9425336554
 10
176.4875848527
 20
-4.9135235697
 10
176.1889901454
 20
-3.8877233528
 10
175.9426761706
 20
-2.8701306003
 10
175.7498429453
 20
-1.8657029217
 10
175.6114299336
 20
-0.8793337877
 10
175.5281114698
 20
0.0841713103
 10
175.5002934731
 20
1.0201182725
  0
LWPOLYLINE
  5
104
330
1F
100
AcDbEntity
  8
0
  6
Continuous
 62
     7
370
    25
100
AcDbPolyline
 90
       60
 70
   128
 43
0.0
 10
200.3550968318
 20
34.0285914954
 10
200.8531814349
 20
33.708677569
 10
201.2895399239
 20
33.3600125897
 10
201.6592281826
 20
32.9865470711
 10
201.9580574953
 20
32.5925125269
 10
202.1826420066
 20
32.1823735257
 10
202.3304370842
 20
31.7607771063
 10
202.3997681508
 20
31.3325001248
 10
202.3898496577
 20
30.9023951303
 10
202.3007939854
 20
30.4753353843
 10
202.1336101702
 20
30.0561596445
 10
201.8901924716
 20
29.6496173394
 10
201.5732989094
 20
29.2603147557
 10
201.1865200143
 20
28.8926628474
 10
200.7342381456
 20
28.5508272575
 10
200.2215778377
 20
28.2386811197
 10
199.6543477368
 20
27.9597611746
 10
199.0389747864
 20
27.7172276965
 10
198.3824314081
 20
27.5138286867
 10
197.6921565007
 20
27.3518687373
 10
196.9759711546
 20
27.2331829192
 10
196.2419900361
 20
27.15911599
 10
195.4985294444
 20
27.1305071579
 10
194.7540130851
 20
27.1476805721
 10
194.0168766262
 20
27.2104416512
 10
193.2954721182
 20
27.3180792869
 10
192.5979733624
 20
27.4693739019
 10
191.9322832985
 20
27.6626112677
 10
191.3059444609
 20
27.8956019278
 10
190.7260535188
 20
28.1657060048
 10
190.1991808685
 20
28.4698631117
 10
189.7312961874
 20
28.8046270269
 10
189.3277007961
 20
29.1662047414
 10
188.9929675916
 20
29.5504994354
 10
188.7308892348
 20
29.9531568963
 10
188.5444351782
 20
30.3696148542
 10
188.4357180208
 20
30.7951546741
 10
188.4059695715
 20
31.2249548197
 10
188.455526892
 20
31.6541454837
 10
188.5838284781
 20
32.0778637644
 10
188.7894206216
 20
32.4913087642
 10
189.0699738814
 20
32.8897959863
 10
189.4223094768
 20
33.268810411
 10
189.8424353049
 20
33.6240576536
 10
190.325591172
 20
33.9515126208
 10
190.8663027293
 20
34.247465117
 10
191.4584434986
 20
34.5085618822
 10
192.0953042885
 20
34.7318445856
 10
192.7696692117
 20
34.9147833451
 10
193.4738974441
 20
35.0553053914
 10
194.2000097986
 20
35.1518185536
 10
194.939779132
 20
35.2032292989
 10
195.6848235622
 20
35.2089551231
 10
196.426701438
 20
35.1689311503
 10
197.1570069867
 20
35.0836108681
 10
197.8674655546
 20
34.9539609894
 10
198.5500273622
 20
34.7814504992
 10
199.1969587116
 20
34.5680340101
 10
199.800929612
 20
34.3161296164
 10
200.3550968318
 20
34.0285914954
  0
LWPOLYLINE
  5
105
330
1F
100
AcDbEntity
  8
0
  6
Continuous
 62
     7
370
    25
100
AcDbPolyline
 90
       51
 70
   128
 43
0.0
 10
198.9408832694
 20
33.2121833836
 10
199.3561244254
 20
32.9402816576
 10
199.7090594985
 20
32.6404798753
 10
199.9941224919
 20
32.3175060897
 10
200.2068177919
 20
31.9764537905
 10
200.3437910664
 20
31.6227015761
 10
200.4028821653
 20
31.2618283302
 10
200.3831591865
 20
30.8995252396
 10
200.2849331732
 20
30.5415060403
 10
200.1097532082
 20
30.1934169091
 10
199.8603819844
 20
29.8607474195
 10
199.5407522348
 20
29.548743968
 10
199.1559047116
 20
29.2623270355
 10
198.7119086901
 20
29.006013588
 10
198.2157662527
 20
28.7838458418
 10
197.6753018622
 20
28.599327515
 10
197.0990389647
 20
28.4553685717
 10
196.4960655705
 20
28.3542393306
 10
195.8758909301
 20
28.2975346601
 10
195.2482955681
 20
28.2861488268
 10
194.6231770383
 20
28.320261392
 10
194.0103938333
 20
28.3993343803
 10
193.4196099103
 20
28.5221207634
 10
192.8601422847
 20
28.6866841267
 10
192.3408140952
 20
28.8904292076
 10
191.8698154575
 20
29.1301428244
 10
191.4545743016
 20
29.4020445504
 10
191.1016392285
 20
29.7018463327
 10
190.8165762351
 20
30.0248201183
 10
190.6038809351
 20
30.3658724175
 10
190.4669076605
 20
30.7196246319
 10
190.4078165616
 20
31.0804978778
 10
190.4275395405
 20
31.4428009684
 10
190.5257655538
 20
31.8008201677
 10
190.7009455187
 20
32.1489092989
 10
190.9503167425
 20
32.4815787885
 10
191.2699464921
 20
32.79358224
 10
191.6547940153
 20
33.0799991725
 10
192.0987900369
 20
33.33631262
 10
192.5949324742
 20
33.5584803662
 10
193.1353968648
 20
33.742998693
 10
193.7116597622
 20
33.8869576363
 10
194.3146331565
 20
33.9880868774
 10
194.9348077969
 20
34.0447915479
 10
195.5624031589
 20
34.0561773812
 10
196.1875216887
 20
34.022064816
 10
196.8003048937
 20
33.9429918277
 10
197.3910888166
 20
33.8202054446
 10
197.9505564422
 20
33.6556420813
 10
198.4698846317
 20
33.4518970004
 10
198.9408832694
 20
33.2121833836
  0
LWPOLYLINE
  5
106
330
1F
100
AcDbEntity
  8
0
  6
Continuous
 62
     7
370
    25
100
AcDbPolyline
 90
       41
 70
   128
 43
0.0
 10
245.5388630159
 20
47.166859646
 10
246.3401575271
 20
46.7715915657
 10
247.2522107293
 20
46.2611375603
 10
248.1634155098
 20
45.6869358768
 10
249.0703821269
 20
45.0511225833
 10
249.9697366051
 20
44.3560629468
 10
250.8581332869
 20
43.6043426351
 10
251.7322672782
 20
42.7987580969
 10
252.5888867431
 20
41.9423061596
 10
253.4248050009
 20
41.0381728808
 10
254.2369123809
 20
40.0897216956
 10
255.0221877902
 20
39.1004809047
 10
255.7777099527
 20
38.0741305488
 10
256.5006682765
 20
37.0144887187
 10
257.1883733089
 20
35.9254973515
 10
257.8382667422
 20
34.8112075667
 10
258.44793093
 20
33.6757645955
 10
259.0150978817
 20
32.5233923603
 10
259.5376576987
 20
31.3583777614
 10
260.0136664244
 20
30.1850547298
 10
260.4413532749
 20
29.0077881041
 10
260.8191272271
 20
27.8309573936
 10
261.1455829371
 20
26.6589404857
 10
261.4195059683
 20
25.4960973604
 10
261.6398773088
 20
24.3467538704
 10
261.805877163
 20
23.2151856491
 10
261.9168880003
 20
22.1056022044
 10
261.9724968533
 20
21.0221312598
 10
261.9724968533
 20
19.9688033983
 10
261.9168880003
 20
18.9495370687
 10
261.805877163
 20
17.9681240087
 10
261.6398773088
 20
17.0282151393
 10
261.4195059683
 20
16.1333069833
 10
261.1455829371
 20
15.2867286579
 10
260.8191272271
 20
14.4916294899
 10
260.4413532749
 20
13.7509673005
 10
260.0136664244
 20
13.0674974017
 10
259.5376576987
 20
12.4437623464
 10
259.0150978817
 20
11.88208247
 10
258.44793093
 20
11.3845472584
 10
258.0850850907
 20
11.1162081792
  0
SPLINE
  5
107
330
1F
100
AcDbEntity
  8
0
  6
Continuous
 62
     7
370
    25
100
AcDbSpline
210
0.0
220
0.0
230
1.0
 70
     8
 71
     3
 72
    17
 73
    13
 74
     0
 42
0.00000001
 43
0.00000001
 40
0.0
 40
0.0
 40
0.0
 40
0.0
 40
0.1058725665634878
 40
0.2117265089624244
 40
0.3177918945662268
 40
0.4238315067822767
 40
0.5260500307758625
 40
0.6282715309183033
 40
0.727941237123215
 40
0.8276324314044409
 40
0.9303151481999681
 40
1.0
 40
1.0
 40
1.0
 40
1.0
 10
238.6831778630393
 20
37.63515633224575
 30
0.0
 10
238.2931869221542
 20
37.70005217282254
 30
0.0
 10
237.5132736441374
 20
37.8298324380744
 30
0.0
 10
236.365011555568
 20
38.14490338834807
 30
0.0
 10
235.2729190695154
 20
38.52796027498844
 30
0.0
 10
234.2783435927405
 20
38.96433483989467
 30
0.0
 10
233.4142690136852
 20
39.43221262536552
 30
0.0
 10
232.7022306012664
 20
39.91201690252606
 30
0.0
 10
232.1515879770696
 20
40.39626752725415
 30
0.0
 10
231.768524008398
 20
40.88215012610781
 30
0.0
 10
231.5604389992517
 20
41.31643763737135
 30
0.0
 10
231.5594590188334
 20
41.58711186578982
 30
0.0
 10
231.5590628318316
 20
41.69654018601916
 30
0.0
  0
SPLINE
  5
108
330
1F
100
AcDbEntity
  8
0
  6
Continuous
 62
     7
370
    25
100
AcDbSpline
210
0.0
220
0.0
230
1.0
 70
     8
 71
     3
 72
    17
 73
    13
 74
     0
 42
0.00000001
 43
0.00000001
 40
0.0
 40
0.0
 40
0.0
 40
0.0
 40
0.0474189620715207
 40
0.1559975614450325
 40
0.2655198484894847
 40
0.3750179712611129
 40
0.4806011818437012
 40
0.586187962750802
 40
0.6892777551645161
 40
0.7923902855297351
 40
0.8961902731222557
 40
1.0
 40
1.0
 40
1.0
 40
1.0
 10
245.5142005364912
 20
41.36541610720435
 30
0.0
 10
245.5196877210956
 20
41.24840662400289
 30
0.0
 10
245.5377393059484
 20
40.86347213265235
 30
0.0
 10
245.3606351793487
 20
40.21962120745822
 30
0.0
 10
244.9851577800412
 20
39.47932914354661
 30
0.0
 10
244.4193294440412
 20
38.82917923215997
 30
0.0
 10
243.6947952032571
 20
38.30143546310394
 30
0.0
 10
242.8496618823228
 20
37.90590193354409
 30
0.0
 10
241.9002032500401
 20
37.64816714317757
 30
0.0
 10
240.8771236891128
 20
37.5195990091463
 30
0.0
 10
239.796434779776
 20
37.50884795520118
 30
0.0
 10
239.0542751072285
 20
37.5930522231811
 30
0.0
 10
238.6831778630393
 20
37.63515633224575
 30
0.0
  0
LWPOLYLINE
  5
109
330
1F
100
AcDbEntity
  8
0
  6
Continuous
 62
     7
370
    25
100
AcDbPolyline
 90
       60
 70
   128
 43
0.0
 10
233.5891155475
 20
53.2141821232
 10
233.0910309444
 20
53.5340960496
 10
232.6546724554
 20
53.8827610289
 10
232.2849841967
 20
54.2562265475
 10
231.986154884
 20
54.6502610917
 10
231.7615703727
 20
55.0604000929
 10
231.6137752951
 20
55.4819965123
 10
231.5444442285
 20
55.9102734938
 10
231.5543627217
 20
56.3403784883
 10
231.643418394
 20
56.7674382343
 10
231.8106022091
 20
57.1866139741
 10
232.0540199077
 20
57.5931562792
 10
232.3709134699
 20
57.9824588629
 10
232.7576923651
 20
58.3501107712
 10
233.2099742337
 20
58.6919463611
 10
233.7226345416
 20
59.0040924989
 10
234.2898646425
 20
59.283012444
 10
234.9052375929
 20
59.5255459221
 10
235.5617809712
 20
59.7289449319
 10
236.2520558786
 20
59.8909048813
 10
236.9682412247
 20
60.0095906994
 10
237.7022223433
 20
60.0836576286
 10
238.445682935
 20
60.1122664607
 10
239.1901992942
 20
60.0950930465
 10
239.9273357531
 20
60.0323319674
 10
240.6487402612
 20
59.9246943317
 10
241.3462390169
 20
59.7733997167
 10
242.0119290808
 20
59.5801623509
 10
242.6382679185
 20
59.3471716908
 10
243.2181588605
 20
59.0770676138
 10
243.7450315109
 20
58.7729105069
 10
244.2129161919
 20
58.4381465917
 10
244.6165115832
 20
58.0765688772
 10
244.9512447878
 20
57.6922741832
 10
245.2133231446
 20
57.2896167223
 10
245.3997772011
 20
56.8731587644
 10
245.5084943585
 20
56.4476189445
 10
245.5382428078
 20
56.0178187989
 10
245.4886854873
 20
55.5886281349
 10
245.3603839012
 20
55.1649098542
 10
245.1547917577
 20
54.7514648544
 10
244.874238498
 20
54.3529776323
 10
244.5219029025
 20
53.9739632076
 10
244.1017770745
 20
53.618715965
 10
243.6186212073
 20
53.2912609978
 10
243.0779096501
 20
52.9953085016
 10
242.4857688807
 20
52.7342117364
 10
241.8489080909
 20
52.510929033
 10
241.1745431677
 20
52.3279902735
 10
240.4703149352
 20
52.1874682272
 10
239.7442025807
 20
52.090955065
 10
239.0044332473
 20
52.0395443197
 10
238.2593888171
 20
52.0338184955
 10
237.5175109413
 20
52.0738424683
 10
236.7872053926
 20
52.1591627505
 10
236.0767468247
 20
52.2888126292
 10
235.3941850171
 20
52.4613231194
 10
234.7472536677
 20
52.6747396085
 10
234.1432827673
 20
52.9266440022
 10
233.5891155475
 20
53.2141821232
  0
LWPOLYLINE
  5
10A
330
1F
100
AcDbEntity
  8
0
  6
Continuous
 62
     7
370
    25
100
AcDbPolyline
 90
       51
 70
   128
 43
0.0
 10
235.0033291099
 20
54.030590235
 10
234.588087954
 20
54.302491961
 10
234.2351528808
 20
54.6022937433
 10
233.9500898874
 20
54.9252675289
 10
233.7373945875
 20
55.2663198281
 10
233.6004213129
 20
55.6200720425
 10
233.541330214
 20
55.9809452884
 10
233.5610531928
 20
56.343248379
 10
233.6592792062
 20
56.7012675783
 10
233.8344591711
 20
57.0493567095
 10
234.0838303949
 20
57.3820261991
 10
234.4034601445
 20
57.6940296506
 10
234.7883076677
 20
57.9804465831
 10
235.2323036892
 20
58.2367600306
 10
235.7284461266
 20
58.4589277768
 10
236.2689105172
 20
58.6434461036
 10
236.8451734146
 20
58.7874050469
 10
237.4481468089
 20
58.888534288
 10
238.0683214493
 20
58.9452389585
 10
238.6959168112
 20
58.9566247918
 10
239.3210353411
 20
58.9225122266
 10
239.933818546
 20
58.8434392383
 10
240.524602469
 20
58.7206528552
 10
241.0840700946
 20
58.5560894919
 10
241.6033982841
 20
58.352344411
 10
242.0743969218
 20
58.1126307942
 10
242.4896380777
 20
57.8407290682
 10
242.8425731509
 20
57.5409272859
 10
243.1276361443
 20
57.2179535003
 10
243.3403314442
 20
56.8769012011
 10
243.4773047188
 20
56.5231489867
 10
243.5363958177
 20
56.1622757408
 10
243.5166728389
 20
55.7999726502
 10
243.4184468255
 20
55.4419534509
 10
243.2432668606
 20
55.0938643197
 10
242.9938956368
 20
54.7611948301
 10
242.6742658872
 20
54.4491913786
 10
242.289418364
 20
54.1627744461
 10
241.8454223425
 20
53.9064609986
 10
241.3492799051
 20
53.6842932524
 10
240.8088155145
 20
53.4997749256
 10
240.2325526171
 20
53.3558159823
 10
239.6295792228
 20
53.2546867412
 10
239.0094045824
 20
53.1979820707
 10
238.3818092205
 20
53.1865962374
 10
237.7566906907
 20
53.2207088026
 10
237.1439074857
 20
53.2997817909
 10
236.5531235627
 20
53.422568174
 10
235.9936559371
 20
53.5871315373
 10
235.4743277476
 20
53.7908766182
 10
235.0033291099
 20
54.030590235
  0
LWPOLYLINE
  5
10B
330
1F
100
AcDbEntity
  8
0
  6
Continuous
 62
     1
370
    25
100
AcDbPolyline
 90
       48
 70
   128
 43
0.0
 10
202.4053493635
 20
26.8139090518
 10
203.1170719965
 20
26.7032381948
 10
204.0048597876
 20
26.5037904706
 10
204.9071487751
 20
26.2346889865
 10
205.8207696361
 20
25.8968789713
 10
206.7425132439
 20
25.4915469949
 10
207.6691419406
 20
25.0201168008
 10
208.597400909
 20
24.4842443047
 10
209.5240296057
 20
23.8858117783
 10
210.4457732136
 20
23.2269212376
 10
211.3593940746
 20
22.5098870598
 10
212.2616830621
 20
21.7372278534
 10
213.1494708531
 20
20.9116576122
 10
214.0196390607
 20
20.0360761817
 10
214.8691311874
 20
19.1135590737
 10
215.6949633609
 20
18.147346663
 10
216.4942348157
 20
17.1408328062
 10
217.2641380817
 20
16.0975529197
 10
218.0019688455
 20
15.0211715623
 10
218.7051354498
 20
13.9154695626
 10
219.371167996
 20
12.7843307394
 10
219.9977270207
 20
11.631728259
 10
220.5826117124
 20
10.4617106796
 10
221.1237676423
 20
9.2783877307
 10
221.6192939805
 20
8.0859158773
 10
222.0674501725
 20
6.8884837202
 10
222.4666620536
 20
5.6902972835
 10
222.8155273772
 20
4.4955652409
 10
223.1128207414
 20
3.3084841322
 10
223.3574978923
 20
2.1332236231
 10
223.5486993924
 20
0.973911859
 10
223.6857536396
 20
-0.1653790353
 10
223.7681792258
 20
-1.2806472589
 10
223.7956866281
 20
-2.3679753916
 10
223.7681792258
 20
-3.4235441535
 10
223.6857536396
 20
-4.443645821
 10
223.5486993924
 20
-5.4246972497
 10
223.3574978923
 20
-6.3632524607
 10
223.1128207414
 20
-7.2560147445
 10
222.8155273772
 20
-8.0998482412
 10
222.4666620536
 20
-8.8917889548
 10
222.0674501725
 20
-9.6290551645
 10
221.6192939805
 20
-10.3090571961
 10
221.1237676423
 20
-10.9294065175
 10
220.5826117124
 20
-11.4879241291
 10
219.9977270207
 20
-11.9826482175
 10
219.371167996
 20
-12.4118410462
 10
219.207438921
 20
-12.5091988689
  0
LWPOLYLINE
  5
10C
330
1F
100
AcDbEntity
  8
0
  6
Continuous
 62
     1
370
    25
100
AcDbPolyline
 90
       55
 70
   128
 43
0.0
 10
214.7368409905
 20
36.0618281464
 10
215.2390769296
 20
36.3265853513
 10
215.9422435338
 20
36.6204284706
 10
216.6800742976
 20
36.8449285609
 10
217.4499775636
 20
36.9992970575
 10
218.2492490184
 20
37.0829917354
 10
219.075081192
 20
37.0957186139
 10
219.9245733186
 20
37.0374329896
 10
220.7947415262
 20
36.9083395926
 10
221.6825293173
 20
36.7088918684
 10
222.5848183048
 20
36.4397903843
 10
223.4984391657
 20
36.1019803691
 10
224.4201827736
 20
35.6966483927
 10
225.3468114703
 20
35.2252181986
 10
226.2750704387
 20
34.6893457025
 10
227.2016991354
 20
34.0909131761
 10
228.1234427432
 20
33.4320226354
 10
229.0370636042
 20
32.7149884575
 10
229.9393525917
 20
31.9423292512
 10
230.8271403828
 20
31.11675901
 10
231.6973085904
 20
30.2411775795
 10
232.546800717
 20
29.3186604714
 10
233.3726328906
 20
28.3524480608
 10
234.1719043454
 20
27.345934204
 10
234.9418076114
 20
26.3026543175
 10
235.6796383752
 20
25.22627296
 10
236.3828049794
 20
24.1205709604
 10
237.0488375257
 20
22.9894321372
 10
237.6753965504
 20
21.8368296568
 10
238.2602812421
 20
20.6668120774
 10
238.801437172
 20
19.4834891285
 10
239.2969635101
 20
18.291017275
 10
239.7451197022
 20
17.0935851179
 10
240.1443315832
 20
15.8953986813
 10
240.4931969069
 20
14.7006666387
 10
240.7904902711
 20
13.51358553
 10
241.0351674219
 20
12.3383250209
 10
241.2263689221
 20
11.1790132567
 10
241.3634231693
 20
10.0397223625
 10
241.4458487555
 20
8.9244541389
 10
241.4733561578
 20
7.8371260062
 10
241.4458487555
 20
6.7815572443
 10
241.3634231693
 20
5.7614555768
 10
241.2263689221
 20
4.7804041481
 10
241.0351674219
 20
3.8418489371
 10
240.7904902711
 20
2.9490866532
 10
240.4931969069
 20
2.1052531566
 10
240.1443315832
 20
1.313312443
 10
239.7451197022
 20
0.5760462333
 10
239.2969635101
 20
-0.1039557983
 10
238.801437172
 20
-0.7243051197
 10
238.2602812421
 20
-1.2828227313
 10
237.6753965504
 20
-1.7775468197
 10
237.0488375257
 20
-2.2067396484
 10
236.8850409184
 20
-2.3041364571
  0
ENDSEC
  0
SECTION
  2
OBJECTS
  0
DICTIONARY
  5
C
330
0
100
AcDbDictionary
281
     1
  3
ACAD_GROUP
350
D
  3
ACAD_LAYOUT
350
1A
  3
ACAD_MLINESTYLE
350
17
  3
ACAD_PLOTSETTINGS
350
19
  3
ACAD_PLOTSTYLENAME
350
E
  3
ACAD_SCALELIST
350
47
  3
DWGPROPS
350
10D
  0
DICTIONARY
  5
D
102
{ACAD_REACTORS
330
C
102
}
330
C
100
AcDbDictionary
281
     1
  0
DICTIONARY
  5
1A
102
{ACAD_REACTORS
330
C
102
}
330
C
100
AcDbDictionary
281
     1
  3
Layout1
350
1E
  3
Layout2
350
26
  3
Model
350
22
  0
DICTIONARY
  5
17
102
{ACAD_REACTORS
330
C
102
}
330
C
100
AcDbDictionary
281
     1
  3
Standard
350
18
  0
DICTIONARY
  5
19
102
{ACAD_REACTORS
330
C
102
}
330
C
100
AcDbDictionary
281
     1
  0
ACDBDICTIONARYWDFLT
  5
E
102
{ACAD_REACTORS
330
C
102
}
330
C
100
AcDbDictionary
281
     1
  3
Normal
350
F
100
AcDbDictionaryWithDefault
340
F
  0
DICTIONARY
  5
47
102
{ACAD_REACTORS
330
C
102
}
330
C
100
AcDbDictionary
281
     1
  3
A0
350
48
  3
A1
350
49
  3
A2
350
4A
  3
A3
350
4B
  3
A4
350
4C
  3
A5
350
4D
  3
A6
350
4E
  3
A7
350
4F
  3
A8
350
50
  3
A9
350
51
  3
B0
350
52
  3
B1
350
53
  3
B2
350
54
  3
B3
350
55
  3
B4
350
56
  3
B5
350
57
  3
B6
350
58
  3
B7
350
59
  3
B8
350
5A
  3
B9
350
5B
  3
C0
350
5C
  3
C1
350
5D
  3
C2
350
5E
  3
C3
350
5F
  3
C4
350
60
  3
C5
350
61
  3
C6
350
62
  3
C7
350
63
  3
C8
350
64
  3
C9
350
65
  3
D0
350
66
  3
D1
350
67
  3
D2
350
68
  0
XRECORD
  5
10D
102
{ACAD_REACTORS
330
C
102
}
330
C
100
AcDbXrecord
280
     1
  1
DWGPROPS COOKIE
  2

  3

  4

  6

  7

  8
b.kav
  9

300
=
301
=
302
=
303
=
304
=
305
=
306
=
307
=
308
=
309
=
 40
0.0
 41
2459954.239293704
 42
2459954.239294606
  1

 90
        0
  0
LAYOUT
  5
1E
102
{ACAD_REACTORS
330
1A
102
}
330
1A
100
AcDbPlotSettings
  1

  2
none_device
  4

  6

 40
0.0
 41
0.0
 42
0.0
 43
0.0
 44
0.0
 45
0.0
 46
0.0
 47
0.0
 48
0.0
 49
0.0
140
0.0
141
0.0
142
1.0
143
1.0
 70
   688
 72
     1
 73
     0
 74
     5
  7

 75
    16
147
1.0
148
0.0
149
0.0
100
AcDbLayout
  1
Layout1
 70
     1
 71
     1
 10
0.0
 20
0.0
 11
420.0
 21
297.0
 12
0.0
 22
0.0
 32
0.0
 14
1.0000000000E+20
 24
1.0000000000E+20
 34
1.0000000000E+20
 15
-1.0000000000E+20
 25
-1.0000000000E+20
 35
-1.0000000000E+20
146
0.0
 13
0.0
 23
0.0
 33
0.0
 16
1.0
 26
0.0
 36
0.0
 17
0.0
 27
1.0
 37
0.0
 76
     0
330
1B
  0
LAYOUT
  5
26
102
{ACAD_REACTORS
330
1A
102
}
330
1A
100
AcDbPlotSettings
  1

  2
none_device
  4

  6

 40
0.0
 41
0.0
 42
0.0
 43
0.0
 44
0.0
 45
0.0
 46
0.0
 47
0.0
 48
0.0
 49
0.0
140
0.0
141
0.0
142
1.0
143
1.0
 70
   688
 72
     1
 73
     0
 74
     5
  7

 75
    16
147
1.0
148
0.0
149
0.0
100
AcDbLayout
  1
Layout2
 70
     1
 71
     2
 10
0.0
 20
0.0
 11
0.0
 21
0.0
 12
0.0
 22
0.0
 32
0.0
 14
0.0
 24
0.0
 34
0.0
 15
0.0
 25
0.0
 35
0.0
146
0.0
 13
0.0
 23
0.0
 33
0.0
 16
1.0
 26
0.0
 36
0.0
 17
0.0
 27
1.0
 37
0.0
 76
     0
330
23
  0
LAYOUT
  5
22
102
{ACAD_REACTORS
330
1A
102
}
330
1A
100
AcDbPlotSettings
  1

  2
none_device
  4
Letter_(8.50_x_11.00_Inches)
  6

 40
6.35
 41
6.35
 42
6.35000508
 43
6.35000508
 44
215.9
 45
279.4
 46
0.0
 47
0.0
 48
0.0
 49
0.0
140
0.0
141
0.0
142
1.0
143
1.0
 70
  1712
 72
     1
 73
     0
 74
     0
  7

 75
     0
147
1.0
148
0.0
149
0.0
100
AcDbLayout
  1
Model
 70
     1
 71
     0
 10
0.0
 20
0.0
 11
279.4
 21
215.9
 12
0.0
 22
0.0
 32
0.0
 14
0.0
 24
0.0
 34
0.0
 15
279.4
 25
215.9
 35
0.0
146
0.0
 13
0.0
 23
0.0
 33
0.0
 16
1.0
 26
0.0
 36
0.0
 17
0.0
 27
1.0
 37
0.0
 76
     0
330
1F
331
29
  0
MLINESTYLE
  5
18
102
{ACAD_REACTORS
330
17
102
}
330
17
100
AcDbMlineStyle
  2
Standard
 70
     0
  3

 62
   256
 51
90.0
 52
90.0
 71
     2
 49
0.5
 62
   256
  6
BYLAYER
 49
-0.5
 62
   256
  6
BYLAYER
  0
ACDBPLACEHOLDER
  5
F
102
{ACAD_REACTORS
330
E
102
}
330
E
  0
SCALE
  5
48
102
{ACAD_REACTORS
330
47
102
}
330
47
100
AcDbScale
 70
     0
300
1:1
140
1.0
141
1.0
290
     1
  0
SCALE
  5
49
102
{ACAD_REACTORS
330
47
102
}
330
47
100
AcDbScale
 70
     0
300
1:2
140
1.0
141
2.0
290
     0
  0
SCALE
  5
4A
102
{ACAD_REACTORS
330
47
102
}
330
47
100
AcDbScale
 70
     0
300
1:4
140
1.0
141
4.0
290
     0
  0
SCALE
  5
4B
102
{ACAD_REACTORS
330
47
102
}
330
47
100
AcDbScale
 70
     0
300
1:5
140
1.0
141
5.0
290
     0
  0
SCALE
  5
4C
102
{ACAD_REACTORS
330
47
102
}
330
47
100
AcDbScale
 70
     0
300
1:8
140
1.0
141
8.0
290
     0
  0
SCALE
  5
4D
102
{ACAD_REACTORS
330
47
102
}
330
47
100
AcDbScale
 70
     0
300
1:10
140
1.0
141
10.0
290
     0
  0
SCALE
  5
4E
102
{ACAD_REACTORS
330
47
102
}
330
47
100
AcDbScale
 70
     0
300
1:16
140
1.0
141
16.0
290
     0
  0
SCALE
  5
4F
102
{ACAD_REACTORS
330
47
102
}
330
47
100
AcDbScale
 70
     0
300
1:20
140
1.0
141
20.0
290
     0
  0
SCALE
  5
50
102
{ACAD_REACTORS
330
47
102
}
330
47
100
AcDbScale
 70
     0
300
1:30
140
1.0
141
30.0
290
     0
  0
SCALE
  5
51
102
{ACAD_REACTORS
330
47
102
}
330
47
100
AcDbScale
 70
     0
300
1:40
140
1.0
141
40.0
290
     0
  0
SCALE
  5
52
102
{ACAD_REACTORS
330
47
102
}
330
47
100
AcDbScale
 70
     0
300
1:50
140
1.0
141
50.0
290
     0
  0
SCALE
  5
53
102
{ACAD_REACTORS
330
47
102
}
330
47
100
AcDbScale
 70
     0
300
1:100
140
1.0
141
100.0
290
     0
  0
SCALE
  5
54
102
{ACAD_REACTORS
330
47
102
}
330
47
100
AcDbScale
 70
     0
300
2:1
140
2.0
141
1.0
290
     0
  0
SCALE
  5
55
102
{ACAD_REACTORS
330
47
102
}
330
47
100
AcDbScale
 70
     0
300
4:1
140
4.0
141
1.0
290
     0
  0
SCALE
  5
56
102
{ACAD_REACTORS
330
47
102
}
330
47
100
AcDbScale
 70
     0
300
8:1
140
8.0
141
1.0
290
     0
  0
SCALE
  5
57
102
{ACAD_REACTORS
330
47
102
}
330
47
100
AcDbScale
 70
     0
300
10:1
140
10.0
141
1.0
290
     0
  0
SCALE
  5
58
102
{ACAD_REACTORS
330
47
102
}
330
47
100
AcDbScale
 70
     0
300
100:1
140
100.0
141
1.0
290
     0
  0
SCALE
  5
59
102
{ACAD_REACTORS
330
47
102
}
330
47
100
AcDbScale
 70
     0
300
1/128" = 1'-0"
140
0.0078125
141
12.0
290
     0
  0
SCALE
  5
5A
102
{ACAD_REACTORS
330
47
102
}
330
47
100
AcDbScale
 70
     0
300
1/64" = 1'-0"
140
0.015625
141
12.0
290
     0
  0
SCALE
  5
5B
102
{ACAD_REACTORS
330
47
102
}
330
47
100
AcDbScale
 70
     0
300
1/32" = 1'-0"
140
0.03125
141
12.0
290
     0
  0
SCALE
  5
5C
102
{ACAD_REACTORS
330
47
102
}
330
47
100
AcDbScale
 70
     0
300
1/16" = 1'-0"
140
0.0625
141
12.0
290
     0
  0
SCALE
  5
5D
102
{ACAD_REACTORS
330
47
102
}
330
47
100
AcDbScale
 70
     0
300
3/32" = 1'-0"
140
0.09375
141
12.0
290
     0
  0
SCALE
  5
5E
102
{ACAD_REACTORS
330
47
102
}
330
47
100
AcDbScale
 70
     0
300
1/8" = 1'-0"
140
0.125
141
12.0
290
     0
  0
SCALE
  5
5F
102
{ACAD_REACTORS
330
47
102
}
330
47
100
AcDbScale
 70
     0
300
3/16" = 1'-0"
140
0.1875
141
12.0
290
     0
  0
SCALE
  5
60
102
{ACAD_REACTORS
330
47
102
}
330
47
100
AcDbScale
 70
     0
300
1/4" = 1'-0"
140
0.25
141
12.0
290
     0
  0
SCALE
  5
61
102
{ACAD_REACTORS
330
47
102
}
330
47
100
AcDbScale
 70
     0
300
3/8" = 1'-0"
140
0.375
141
12.0
290
     0
  0
SCALE
  5
62
102
{ACAD_REACTORS
330
47
102
}
330
47
100
AcDbScale
 70
     0
300
1/2" = 1'-0"
140
0.5
141
12.0
290
     0
  0
SCALE
  5
63
102
{ACAD_REACTORS
330
47
102
}
330
47
100
AcDbScale
 70
     0
300
3/4" = 1'-0"
140
0.75
141
12.0
290
     0
  0
SCALE
  5
64
102
{ACAD_REACTORS
330
47
102
}
330
47
100
AcDbScale
 70
     0
300
1" = 1'-0"
140
1.0
141
12.0
290
     0
  0
SCALE
  5
65
102
{ACAD_REACTORS
330
47
102
}
330
47
100
AcDbScale
 70
     0
300
1-1/2" = 1'-0"
140
1.5
141
12.0
290
     0
  0
SCALE
  5
66
102
{ACAD_REACTORS
330
47
102
}
330
47
100
AcDbScale
 70
     0
300
3" = 1'-0"
140
3.0
141
12.0
290
     0
  0
SCALE
  5
67
102
{ACAD_REACTORS
330
47
102
}
330
47
100
AcDbScale
 70
     0
300
6" = 1'-0"
140
6.0
141
12.0
290
     0
  0
SCALE
  5
68
102
{ACAD_REACTORS
330
47
102
}
330
47
100
AcDbScale
 70
     0
300
1'-0" = 1'-0"
140
12.0
141
12.0
290
     0
  0
ENDSEC
  0
EOF
